PrimaNota.ru - самый крупный в мире бесплатный архив песенных текстов, аккордов, табулатур и нот


Anathema - Destiny - аккорды и текст, видео

Регистрация Запомнить меня
Войти через:  Facebook Google Twitter Vk Yandex Mail.ru

Anathema - Destiny - аккорды и текст, видео

Печатать
Просмотров: 110
Авторы музыки: Duncan Patterson
Авторы текста: Duncan Patterson
Destiny
Anathema
[-0------------] play it 36 times
[----0---------
-------5------
----------7---
--------------
--------------]

[--------------] ...after a sort break play slowly
[--------------
--------------
-------6------
-7------------
--------------]

[-0------------] play it 44 times
[----0---------
-------5------
----------7---
--------------
--------------]

[--------------] end with this "solo"
[--------------
--------------
--------------
-7------------
--------------]

through the whole song another guitar accompany
the melody with these sounds (you can here how
they variate them):
  1.   2.   3.   4.   5.   6.
[-------------------------------
-------------------------------
-------------------------------
-------2-----------------------
--0----0---------2---------3---
------------0----0----1----1---]
Добавлено: 15.02.2014
Другие материалы по этой песне:

Страница создана 15.06.2012
http://primanota.ru/anathema/destiny-chords.htm
Привет, Гость.
Предлагаем пройти революционный курс по гитаре.
Подарок от PrimaNota.Ru, забирай!