PrimaNota.ru - самый крупный в мире бесплатный архив песенных текстов, аккордов, табулатур и нот


Anastacia - Who's Gonna Stop The Rain - текст песни, таба, видео

Регистрация Запомнить меня
Войти через:  Facebook Google Twitter Vk Yandex Mail.ru

Anastacia - Who's Gonna Stop The Rain - текст песни, таба, видео

Печатать
Просмотров: 210
Авторы: Evan Rogers, Carl Sturken

WHO'S GONNA STOP THE RAIN

Gtr I (E A D G B E)

 Q=83
 4/4
  Gtr I
  S E S   +S  E S S E S E E   E. S +S  E S S E S E E   E. S +S  E S S E S E E
|---------------------------|------------------------|-------------------------|
|-------------4-----3-----3-|-1--------1---1-0---1-3-|-4--------4-----3-----3--|
|-----0---(0)-----0---0-0---|----0-(0)---------0-----|----0-(0)---------0-0----|
|---------------------------|------------------------|--------------5----------|
|---3-----------3---1-------|------------------------|-3----------3---1--------|
|---------------------------|-4----------4---3-------|-------------------------|


  E. S +S  E S S E S E E   E. S +S  E S S E S E E   E. S +S  E S S E S E E
|------------------------|------------------------|------------------------|
|-1--------1---1-0---1-3-|-4--------4-----3-----3-|-1--------1---1-0---1-3-|
|----0-(0)---------0-----|----0-(0)---------0-0---|----0-(0)---------0-----|
|------------------------|--------------5---------|------------------------|
|------------------------|-3----------3---1-------|------------------------|
|-4----------4---3-------|------------------------|-4----------4---3-------|


  E. S +S  E S S E S E E   E. S +S  E S S E S E E   E. S +S  E S S E S E E
|------------------------|------------------------|------------------------|
|-4--------4-----3-----3-|-1--------1---1-0---1-3-|-4--------4-----3-----3-|
|----0-(0)-----0---0-0---|----0-(0)---------0-----|----0-(0)-----0---0-0---|
|------------------------|------------------------|------------------------|
|-3----------3---1-------|------------------------|-3----------3---1-------|
|------------------------|-4----------4---3-------|------------------------|


  E. S +S  E S S E S E E   E. S +S  E S S E S E E   E. S +S  E S S E. E E
|------------------------|------------------------|------------------------|
|-1--------1---1-0---1-3-|-4--------4-----3-----3-|-1--------1---1-3----3--|
|----0-(0)---------0-----|----0-(0)-----0---0-0---|----0-(0)----------0----|
|------------------------|------------------------|------------------------|
|------------------------|-3----------3---1-------|------------------------|
|-4----------4---3-------|------------------------|-4----------4---3-------|


  E S S +S  E S +E  S S +S  E.   E S S +S  E S +E  S S +S  E.
|------------------------------|------------------------------|
|-4---------4-6-(6)---------6--|-8---------8-8-(8)---------8--|
|-----5-(5)-----------7-(7)----|-----8-(8)-----------9-(9)----|
|---5---------------7----------|---8---------------8----------|
|-3-----------5-(5)------------|-6-----------7-(7)------------|
|------------------------------|------------------------------|


  E  S  S  +S  E S +E  S S +S  E.
|---------------------------------|
|-9------------9-8-(8)---------8--|
|------10-(10)-----------8-(8)----|
|---10-----------------8----------|
|-8--------------6-(6)------------|
|---------------------------------|


  H    E E S S E   E. S +S  E S S E S E E   E. S +S  E S S E S E E
|----------------|------------------------|-------------------------|
|-6--------6-----|----------4-----3-----3-|-1--------1---1-0---1-3--|
|-7----------7---|------------------0-0---|----0-(0)---------0------|
|-7------------7-|----5-(5)-----5---------|-------------------------|
|-5------5-------|-3----------3---1-------|-------------------------|
|----------------|------------------------|-4----------4---3--------|


  E E Q  E S S +S  E.   W
|---------------------|----------|
|-4------6-4-3-(3)-1--|----------|
|-----5---------------|-4--------|
|---6-----------------|-5--------|
|---------------------|----------|
|-4-------------------|-3--------|


  E. S +S  E S S E S E E   E. S +S  E S S E S E E
|------------------------|-------------------------|
|----------4-----3-----3-|-1--------1---1-0---1-3--|
|----0-(0)-----0---0-0---|----0-(0)---------0------|
|------------------------|-------------------------|
|-3----------3---1-------|-------------------------|
|------------------------|-4----------4---3--------|


  E. S +S  E S S E S E E   E. S +S  E S S E S E E   E. S +S  E S S E S E E
|------------------------|------------------------|------------------------|
|-4--------4-----3-----3-|-1--------1---1-0---1-3-|-4--------4-----3-----3-|
|--------------0---0-0---|----0-(0)---------0-----|------------------0-0---|
|----5-(5)---------------|------------------------|----5-(5)-----5---------|
|-3----------3---1-------|------------------------|-3----------3---1-------|
|------------------------|-4----------4---3-------|------------------------|


  E. S +S  E S S E S E E   E. S +S  E S S E S E E   E. S +S  E S S E S E E
|------------------------|------------------------|------------------------|
|-1--------1---1-0---1-3-|-4--------4-----3-----3-|-1--------1---1-0---1-3-|
|----0-(0)---------0-----|----0-(0)-----0---0-0---|----0-(0)---------0-----|
|------------------------|------------------------|------------------------|
|------------------------|-3----------3---1-------|------------------------|
|-4----------4---3-------|------------------------|-4----------4---3-------|


  E. S +S  E S S E S E E   E. S +S  E S S E S E E   E. S +S  E S S E S E E
|------------------------|------------------------|------------------------|
|-4--------4-----3-----3-|-1--------1---1-0---1-3-|-4--------4-----3-----3-|
|----0-(0)---------0-0---|----0-(0)---------0-----|----0-(0)-----0---0-0---|
|--------------5---------|------------------------|------------------------|
|-3----------3---1-------|------------------------|-3----------3---1-------|
|------------------------|-4----------4---3-------|------------------------|


  E. S +S  E S S E S E E   E S S +S  E S +E  S S +S  E.
|------------------------|------------------------------|
|-1--------1---1-0---1-3-|-4---------4-6-(6)---------6--|
|----0-(0)---------0-----|-----5-(5)-----------7-(7)----|
|------------------------|---5---------------7----------|
|------------------------|-3-----------5-(5)------------|
|-4----------4---3-------|------------------------------|


  E S S +S  E S +E  S S +S  E.
|-------------------------------|
|-8---------8-8-(8)---------8---|
|-----8-(8)-----------9-(9)-----|
|---8---------------8-----------|
|-6-----------7-(7)-------------|
|-------------------------------|


  E  S  S  +S  E S +E  S S +S  E.
|---------------------------------|
|-9------------9-8-(8)---------8--|
|------10-(10)-----------8-(8)----|
|---10-----------------8----------|
|-8--------------6-(6)------------|
|---------------------------------|


  Q. +E    E E S S E   E. S +S  E S S E S E E
|--------------------|------------------------|
|-6--(6)-------6-----|----------4-----3-----3-|
|-7--(7)---------7---|----0-(0)---------0-0---|
|-7--(7)-----------7-|--------------5---------|
|-5--(5)-----5-------|-3----------3---1-------|
|--------------------|------------------------|


  E. S +S  E S S E S E E   E E Q  E S S +S  E.
|------------------------|---------------------|
|-1--------1---1-0---1-3-|-4------6-4-3-(3)-1--|
|----0-(0)---------0-----|-----5---------------|
|------------------------|---6-----------------|
|------------------------|---------------------|
|-4----------4---3-------|-4-------------------|


  W          E. S +S  E S S E S E E
|----------|-------------------------|
|----------|----------4-----3-----3--|
|-4--------|----0-(0)-----0---0-0----|
|-5--------|-------------------------|
|----------|-3----------3---1--------|
|-3--------|-------------------------|


  E. S +S  E S S E S E E   E. S +S  E S S E S E E   E. S +S  E S S E S E E
|------------------------|------------------------|------------------------|
|-1--------1---1-0---1-3-|-4--------4-----3-----3-|-1--------1---1-0---1-3-|
|----0-(0)---------0-----|----0-(0)-----0---0-0---|----0-(0)---------0-----|
|------------------------|------------------------|------------------------|
|------------------------|-3----------3---1-------|------------------------|
|-4----------4---3-------|------------------------|-4----------4---3-------|


  E. S +S  E S S E S E E   E. S +S  E S S E S E E   E. S +S  E S S E S E E
|------------------------|------------------------|------------------------|
|-4--------4-----3-----3-|-1--------1---1-0---1-3-|-4--------4-----3-----3-|
|----0-(0)-----0---0-0---|----0-(0)---------0-----|----0-(0)-----0---0-0---|
|------------------------|------------------------|------------------------|
|-3----------3---1-------|------------------------|-3----------3---1-------|
|------------------------|-4----------4---3-------|------------------------|


  E. S +S  E S S E S E E   E  E  E E E E E E   E. S +S  E S +S  E S E E
|------------------------|-------------------|--------------------------|
|-1--------1---1-4---6-8-|-9-------9-8-----8-|-6----------6-(6)-0---1-3-|
|----0-(0)---------3-----|------10-------8---|----------7---------0-----|
|------------------------|---10--------8-----|----7-(7)-----------------|
|----------------3---5-7-|-8---------6-------|-5------------------------|
|-4----------4-----------|-------------------|------------------3-------|


  E. S +S  E S S E S E E   E. S +S  E S S E S E E   E  E  E E E E E E
|------------------------|------------------------|-------------------|
|-4--------4-----3-----3-|-1--------1---1-4---6-8-|-9-------9-8-----8-|
|----0-(0)-----0---0-0---|----0-(0)---------3-----|------10-------8---|
|------------------------|------------------------|---10--------8-----|
|-3----------3---1-------|----------------3---5-7-|-8---------6-------|
|------------------------|-4----------4-----------|-------------------|


  E. S +S  E S +S  E S E E   E E Q  E S S +S  E.
|--------------------------|---------------------|
|-6----------6-(6)-0---1-3-|-4------6-4-3-(3)-1--|
|----------7---------0-----|-----5---------------|
|----7-(7)-----------------|---6-----------------|
|-5------------------------|---------------------|
|------------------3-------|-4-------------------|


  W          E. S +S  E S S E S E E
|----------|-------------------------|
|----------|----------4-----3-----3--|
|-4--------|----0-(0)-----0---0-0----|
|-5--------|-------------------------|
|----------|-3----------3---1--------|
|-3--------|-------------------------|


  E. S +S  E S S E S E E   E. S +S  E S S E S E E   E. S +S  E S S E S E E
|------------------------|------------------------|------------------------|
|-1--------1---1-0---1-3-|-4--------4-----3-----3-|-1--------1---1-0---1-3-|
|----0-(0)---------0-----|----0-(0)---------0-----|----0-(0)---------0-----|
|------------------------|--------------5-----5---|------------------------|
|------------------------|-3----------3---1-------|------------------------|
|-4----------4---3-------|------------------------|-4----------4---3-------|


  E. S +S  E S S E S E E   E. S +S  E S S E S E E   E. S +S  E S S E S E E
|------------------------|------------------------|------------------------|
|-4--------4-----3-----3-|-1--------1---1-0---1-3-|-4--------4-----3-----3-|
|------------------0-0---|----0-(0)---------0-----|------------------0-0---|
|----5-(5)-----5---------|------------------------|----5-(5)-----5---------|
|-3----------3---1-------|------------------------|-3----------3---1-------|
|------------------------|-4----------4---3-------|------------------------|


  E. S +S  E S S E S E E   E. S +S  E S S E S E E   E. S +S  E S S E S E E
|------------------------|------------------------|------------------------|
|-1--------1---1-0---1-3-|-4--------4-----3-----3-|-1--------1---1-0---1-3-|
|----0-(0)---------0-----|------------------0-0---|----0-(0)---------0-----|
|------------------------|----5-(5)-----5---------|------------------------|
|------------------------|-3----------3---1-------|------------------------|
|-4----------4---3-------|------------------------|-4----------4---3-------|


  E. S +S  E S S E S E E   E. S +S  E S S E S E E
|------------------------|------------------------|
|-4--------4-----3-----3-|-1--------1---1-0---1-3-|
|------------------0-0---|----0-(0)---------0-----|
|----5-(5)-----5---------|------------------------|
|-3----------3---1-------|------------------------|
|------------------------|-4----------4---3-------|


  E S S +S  E S +E  S S +S  E.
|------------------------------|
|-4---------4-6-(6)---------6--|
|-----5-(5)-----------7-(7)----|
|---5---------------7----------|
|-3-----------5-(5)------------|
|------------------------------|


  E S S +S  E S +E  S S +S  E.
|------------------------------|
|-8---------8-8-(8)---------8--|
|-----8-(8)-----------9-(9)----|
|---8---------------8----------|
|-6-----------7-(7)------------|
|------------------------------|


  E  S  S  +S  E S +E  S S +S  E.   Q. +E    E E S S E
|---------------------------------|--------------------|
|-9------------9-8-(8)---------8--|-6--(6)-------6-----|
|------10-(10)-----------8-(8)----|-7--(7)---------7---|
|---10-----------------8----------|-7--(7)-----------7-|
|-8--------------6-(6)------------|-5--(5)-----5-------|
|---------------------------------|--------------------|


  E. S +S  E S S E S E E   E. S +S  E S S E S E E   E E Q  E S S +S  E.   W
|------------------------|------------------------|---------------------|------|
|----------4-----3-----3-|-1--------1---1-0---1-3-|-4------6-4-3-(3)-1--|------|
|------------------0-0---|----0-(0)---------0-----|-----5---------------|-4----|
|----5-(5)-----5---------|------------------------|---6-----------------|-5----|
|-3----------3---1-------|------------------------|---------------------|------|
|------------------------|-4----------4---3-------|-4-------------------|-3----|


  E. S +S  E S S E S E E   E. S +S  E S S E S E E   E. S +S  E S S E S E E
|------------------------|------------------------|------------------------|
|-4--------4-----3-----3-|-1--------1---1-0---1-3-|-4--------4-----3-----3-|
|------------------0-0---|----0-(0)---------0-----|--------------0---0-0---|
|----5-(5)-----5---------|------------------------|----5-(5)---------------|
|-3----------3---1-------|------------------------|-3----------3---1-------|
|------------------------|-4----------4---3-------|------------------------|


  E. S +S  E S S E S E E   +S  E S +S  S S S +S  S E E E
|------------------------|-------------------------------|
|-1--------1---1-0---1-4-|-(4)---4-(4)-----3-(3)-----3-1-|
|----0-(0)---------0-----|-----0---------0-------0-0-----|
|------------------------|-------------------------------|
|----------------------3-|-(3)---------3---1-(1)---------|
|-4----------4---3-------|-----------------------------4-|


  +S  E S +S  S S S +S  S E E E
|--------------------------------|
|-(1)---1-(1)---1-0-(0)---1-3-4--|
|-----0-----------------0--------|
|--------------------------------|
|-----------------------------3--|
|-(4)---------4---3-(3)----------|


  +S  E S +S  S S S +S  S E E E
|-------------------------------|
|-(4)---4-(4)-----3-(3)-----3-1-|
|-----------------------0-0-----|
|-----5---------5---------------|
|-(3)---------3---1-(1)---------|
|-----------------------------4-|


  +S  E S +S  S S S +S  S E E. S   +S  E S S E S E E E. S
|--------------------------------|-------------------------|
|-(1)---1-(1)---1-0-(0)---1-4----|-----4-----3-----3-1-----|
|-----0-----------------0------0-|-(0)-----0---0-0------0--|
|--------------------------------|-------------------------|
|---------------------------3----|-------3---1-------------|
|-(4)---------4---3-(3)----------|-------------------4-----|


  +S  E S S E S E E E. S   +S  E S S E S E E E. S   +S  E S S E S E E Q
|------------------------|------------------------|----------------------|
|-----1---1-0---1-3-4----|-----4-----3-----3-1----|-----1---1-0---1------|
|-(0)---------0--------0-|-(0)-----0---0-0------0-|-(0)---------0--------|
|------------------------|------------------------|----------------------|
|-------------------3----|-------3---1------------|----------------------|
|-------4---3------------|-------------------4----|-------4---3----------|


  W          W          W          W
|----------|----------|----------|------|
|----------|----------|----------|------|
|----------|----------|----------|------|
|----------|----------|----------|------|
|----------|----------|----------|------|
|----------|----------|----------|------|


  W          W          H    E E +S  E S   +S  S S S +S  S E E E +S  E S
|----------|----------|------------------|--------------------------------|
|----------|----------|----------------4-|-(4)-----3-(3)-----3-1-(1)---1--|
|----------|----------|--------------0---|-------0-------0-0---------0----|
|----------|----------|------------------|--------------------------------|
|----------|----------|--------3-(3)-----|-----3---1-(1)------------------|
|----------|----------|------------------|---------------------4-(4)------|


  +S  S S S +S  S E E E +S  E S   +S  S S S +S  S E E E +S  E S
|-------------------------------|-------------------------------|
|-(1)---1-0-(0)---1-3-4-(4)---4-|-(4)-----3-(3)-----3-1-(1)---1-|
|---------------0---------------|---------------0-0---------0---|
|---------------------------5---|-------5-----------------------|
|---------------------3-(3)-----|-----3---1-(1)-----------------|
|-----4---3-(3)-----------------|---------------------4-(4)-----|


  +S  S S S +S  S E E E +S  E S
|--------------------------------|
|-(1)---1-0-(0)---1-3-4-(4)---4--|
|---------------0-----------0----|
|--------------------------------|
|---------------------3-(3)------|
|-----4---3-(3)------------------|


  +S  S S S +S  S E E E +S  E S   +S  S S S +S  S E E E +S  E S
|-------------------------------|-------------------------------|
|---------3-(3)-----3-1-(1)---1-|-(1)---1-0-(0)---1-3-4-(4)---4-|
|-(8)-----------0-0---------0---|---------------0-----------0---|
|-------5-----------------------|-------------------------------|
|-----3---1-(1)-----------------|---------------------3-(3)-----|
|---------------------4-(4)-----|-----4---3-(3)-----------------|


  +S  S S S +S  S E E E +S  E S
|--------------------------------|
|-(4)-----3-(3)-----3-1-(1)---1--|
|---------------0-0---------0----|
|-------5------------------------|
|-----3---1-(1)------------------|
|---------------------4-(4)------|


  +S  S S S +S  S E E E Q
|----------------------------*|
|-(1)---1-0-(0)---1-3--------*|
|---------------0------------*|
|----------------------------*|
|----------------------------*|
|-----4---3-(3)--------------*|
Добавлено: 07.03.2012
Другие материалы по этой песне:

Страница создана 07.03.2012
http://primanota.ru/anastacia/whos-gonna-stop-the-rain-chords.htm
Привет, Гость.
Предлагаем пройти революционный курс по гитаре.
Подарок от PrimaNota.Ru, забирай!