PrimaNota.ru - самый крупный в мире бесплатный архив песенных текстов, аккордов, табулатур и нот


Anarchy Club - Collide - таба, бас-таба, видео

Регистрация Запомнить меня
Войти через:  Facebook Google Twitter Vk Yandex Mail.ru

Anarchy Club - Collide - таба, бас-таба, видео

Печатать
Просмотров: 277
Collide 
by The Anarchy Club

Tabbed by ZackWell


Intro

e|-------------------|
B|-------------------|
G|-------------------| x2
D|-------------------|
A|-2-0-0-2-0-2-0-2---|
D|-2-0-0-2-0-2-0-2---|


Verse

e|----------------------|
B|----------------------|
G|----------------------| x2 
D|----------------------|
A|-2-0-0-2-0-2-0-2-0-2-0|
D|-2-0-0-2-0-2-0-2-0-2-0|

e|----------------------|
B|----------------------|
G|----------------------| x2
D|----------------------|
A|-2-0-0-2-0-2-0-2-3-2--|
D|-2-0-0-2-0-2-0-2-3-2--|
     * *   *   *
e|----------------------|----------------------|
B|----------------------|----------------------|
G|----------------------|----------------------|
D|----------------------|----------------------|
A|-3-0-0-3-0-3-0-3-5-3--|-3-0-0-3-0-3-0-5-0-3--|
D|-3-0-0-3-0-3-0-3-5-3--|-3-0-0-3-0-3-0-5-0-3--|

E--------------------------------|
B--------------------------------|
G--------------------------------|
D-7-5-7-8--7-5-3--0-3-0-3-0-3-0--|
A-7-5-7-8--7-5-3--0-3-0-3-0-3-0--|
D-7-5-7-8--7-5-3--0-3-0-3-0-3-0--|

| /  slide up
| \  slide down
| h  hammer-on
| p  pull-off
| ~  vibrato
| +  harmonic
| x  Mute note
| *  Palm Mute
============================================================================
Добавлено: 25.04.2012
Другие материалы по этой песне:

Страница создана 27.02.2012
http://primanota.ru/anarchy-club/collide-chords.htm
Привет, Гость.
Предлагаем пройти революционный курс по гитаре.
Подарок от PrimaNota.Ru, забирай!