PrimaNota.ru - самый крупный в мире бесплатный архив песенных текстов, аккордов, табулатур и нот


Anarchy Club - Blood Doll - таба, бас-таба, видео

Регистрация Запомнить меня
Войти через:  Facebook Google Twitter Vk Yandex Mail.ru

Anarchy Club - Blood Doll - таба, бас-таба, видео

Печатать
Просмотров: 166
-------------------------------------------------------------------------------
                            Blood Doll - Anarchy Club
-------------------------------------------------------------------------------
Tabbed by: Chicken99
Email: Chris50080@gmail.com

Tuning: Drop D

As many of you may know, this song is on rock band which of course is where

I heard it.  I noticed that Anarchy Club sang this song (also being the

Writers of Behind the Mask) I was pretty disappointed to not find any good 

tabs for the whole song including the solo, so I decided myself to tab this 

song because it did not sound too hard, yet it sounded really cool. Now I am 

almost positive this is how to play it so id give it a good 95% 

accuracy(solo included)Please rate this tab (it's my first) and email me on 

whether you like it or

not. Thank you.

SONG ORDER
Intro lead/rhythm
Riff 1 
Riff 2
Riff 1 
Riff 3
Chorus
Intro lead/rhythm once again
Riff 1
Riff 2
Riff 1
Riff 3
Chorus (whole thing twice)
Bridge 
Solo (rhythm and lead)
Chorus 3 times to finish the song off

Intro-(Lead)  
e|-----------------------------------|
B|-----------------------------------|
G|---7-777-777-777-8--7-777-777-777-5|
D|-----------------------------------|2x
A|-----------------------------------|
D|-----------------------------------|

Intro-(Rhythm) This part is played after the lead guitar plays the intro 1 time. 
e|---------------------------------|
B|---------------------------------|
G|---------------------------------|
D|--0-0-0-0-0-0-0-0-0-0-0-0-0-0-0-0|2x
A|--0-0-0-0-0-0-0-0-0-0-0-0-0-0-0-0|
D|--0-0-0-0-0-0-0-0-0-0-0-0-0-0-0-0|
PM  - - - - - - - - - - - - - - - -

Next- Play these riffs in order as you go down
Riff 1 (both guitars)
e|--------------------------------|
B|--------------------------------|
G|--------------------------------|
D|-0-0-6-0-0-5-0-0-2-3-0-0-0-0-3-2|1x
A|-0-0-6-0-0-5-0-0-2-3-0-0-0-0-3-2|
D|-0-0-6-0-0-5-0-0-2-3-0-0-0-0-3-2|
PM - - - - - - - - - - - - - - - -

Riff 2
e|--------------------------------|
B|--------------------------------|
G|--------------------------------|
D|-0-0-6-0-0-5-0-0-2-3-0-0-0-0-0-0|1x
A|-0-0-6-0-0-5-0-0-2-3-0-0-0-0-0-0|
D|-0-0-6-0-0-5-0-0-2-3-0-0-0-0-0-0|
PM - - - - - - - - - - - - - - - - 

Riff 1
e|--------------------------------|
B|--------------------------------|
G|--------------------------------|
D|-0-0-6-0-0-5-0-0-2-3-0-0-0-0-3-2|1x
A|-0-0-6-0-0-5-0-0-2-3-0-0-0-0-3-2|
D|-0-0-6-0-0-5-0-0-2-3-0-0-0-0-3-2|
PM - - - - - - - - - - - - - - - - 

Riff 3
e|------------------------------------------------|
B|------------------------------------------------|
G|------------------------------------------------|
D|-0-0-6-0-0-5-0-0-2-3-0-0-0-0-0-0-3-3-3-3-6-6-6-6|1x
A|-0-0-6-0-0-5-0-0-2-3-0-0-0-0-0-0-3-3-3-3-6-6-6-6|
D|-0-0-6-0-0-5-0-0-2-3-0-0-0-0-0-0-3-3-3-3-6-6-6-6|
PM - - - - - - - - - - - - - - - - - - - -

Chorus                                Play this the fourth Time (end)
e|-------------------------------|    |-------------|
B|----10-------------------------|    |-------------|
G|----10-------------------------|    |-------------|
D|----8----------------4-----6---|3x  |---4-----3---|
A|-8--8--8--10-11-10---4-----6---|    |---4-----3---|
D|-8-----8--10-11-10--4--4--6--6-|    |--4--4--3--3-|


Bridge (Rhythm- let ring)
e|--------------------|
B|--------------------|
G|-2--0--2-2h3-----0--|
D|--------------4-----|2x
A|--------------------|
D|--------------------|

Solo (Lead and rhythm simultaneously) Listen to the actual song to get the timing!
e|---------------------------------------|
B|---15b-13h15p13h15p13h15p13h15p13h15---|
G|---------------------------------------|
D|---------------------------------------|
A|---------------------------------------|
D|---------------------------------------|

e|----------------------------------------------|
B|---15b--13------------------------------------|
G|-----------15--14h15p14h15p14h15p14h15p14--12-|
D|----------------------------------------------|
A|----------------------------------------------|
D|----------------------------------------------|

e|--------------|
B|--------------|
G|---12---------|
D|-------12 12--|
A|--------------|
D|--------------|

e|------------------------------------------------------------------|
B|---15b--12--------------------------------------------------------|
G|-----------15-15h17-14-14h15p14-12-14-12-14-12-14-14h15-15b-14-12-|
D|------------------------------------------------------------------|
A|------------------------------------------------------------------|
D|------------------------------------------------------------------|

After this it is just the chorus 3 times



| b  bend
| /  slide up
| \  slide down
| h  hammer-on
| p  pull-off
| ~  vibrato
| +  harmonic
| x  Mute note
========================================================================
Добавлено: 11.04.2012
Другие материалы по этой песне:
  • Аккорды и текст

Страница создана 14.03.2012
http://primanota.ru/anarchy-club/blood-doll-chords.htm
Привет, Гость.
Предлагаем пройти революционный курс по гитаре.
Подарок от PrimaNota.Ru, забирай!