PrimaNota.ru - самый крупный в мире бесплатный архив песенных текстов, аккордов, табулатур и нот


Anarchy Club - Behind The Mask - таба, бас-таба, видео

Регистрация Запомнить меня
Войти через:  Facebook Google Twitter Vk Yandex Mail.ru

Anarchy Club - Behind The Mask - таба, бас-таба, видео

Печатать
Просмотров: 294
this is my first tab so i hope it EFFIN decent..!

guitar hero one **not unsigned band**
Official band website: www.anarchyclub.net

Artist: Anarchy Club
Song: Behind the Mask
Tuning: EBGDAD (Drop D)

Intro/chorus
e|--------------------------------------------------------------------------|
B|--------------------------------------------------------------------------|
G|--------------------------------------------------------------------------|
D|--------------------------------------------------------------------------|
A|------5------5--------5--5--3p0-----------5----5--------5--5--3p0---------|
D|-0---------0---3-5~--5---------3p0-----0-----0---3-5~--5----------3p0-----|
(after the               ->^ [5 before the pull offs]you can slide into the pull offs' 
give it that extra little sound.)

Main Riff (distortion)
e|-----------------|                e|-------------------------------|
B|-----------------|                B|-------------------------------|
G|-----------------|                G|-------------------------------|repeat
D|-----------------|x3 then end on  D|--8--7-------------------------|ALL x2
A|----7-0-8-0-7-0--|                A|------8--7------7-0-8-7-0------|
D|-55--------------|                D|-----------5-55----------------|
(listen to the song to get the count i keep backspacing because i keep making it sound confusing)

Main riff (distortion)
e|---------------------------------------------------------------------------|
B|---------------------------------------------------------------------------|
G|---------------------------------------------------------------------------|
D|---------------------------------------------------------------------------|
A|---------------------------------------------------8-0-7-0-----7-0-8-0-7-0-|
D|00-----00-----00-----00-----00-----00-----00-----00--------5-55------------|

e|--------------------------------------------------------------------------|
B|--------------------------------------------------------------------------|
G|--------------------------------------------------------------------------|
D|----------------------------------8--7------------------------------------|
A|----7-0-8-0-7-0------7-0-8-0-7-0------8--7-----7-0-8-0-7-0------7-0-8-0-7-|
D|-55---------------55----------------------5-55--------------55------------|

e|------------------------------|
B|------------------------------|
G|------------------------------|
D|----------------8--7----------|
A|----7-0-8-0-7-0-----8--7------|
D|-55----------------------5-55-|

intro/chorus
e|--------------------------------------------------------------------------|
B|--------------------------------------------------------------------------|
G|--------------------------------------------------------------------------|
D|--------------------------------------------------------------------------|
A|------5------5--------5--5--3p0-----------5----5--------5--5--3p0---------|
D|-0---------0---3-5~--5---------3p0-----0-----0---3-5~--5----------3p0-----|

e|--------------------------------------------------------------------------|
B|--------------------------------------------------------------------------|
G|--------------------------------------------------------------------------|
D|--------------------------------------------------------------------------|
A|------5------5--------5--5--3p0-----------5----5--------5--5--3p0---------|
D|-0---------0---3-5~--5---------3p0-----0-----0---3-5~--5----------3p0-----|

Main riff
e|---------------------------------------------------------------------------|
B|---------------------------------------------------------------------------|
G|---------------------------------------------------------------------------|
D|---------------------------------------------------------------------------|
A|---------------------------------------------------8-0-7-0-----7-0-8-0-7-0-|
D|00-----00-----00-----00-----00-----00-----00-----00--------5-55------------|

e|--------------------------------------------------------------------------|
B|--------------------------------------------------------------------------|
G|--------------------------------------------------------------------------|
D|----------------------------------8--7------------------------------------|
A|----7-0-8-0-7-0------7-0-8-0-7-0------8--7-----7-0-8-0-7-0------7-0-8-0-7-|
D|-55---------------55----------------------5-55--------------55------------|

e|------------------------------|
B|------------------------------|
G|------------------------------|
D|----------------8--7----------|
A|----7-0-8-0-7-0-----8--7------|
D|-55----------------------5-55-|

intro/chorus
e|--------------------------------------------------------------------------|
B|--------------------------------------------------------------------------|
G|--------------------------------------------------------------------------|
D|--------------------------------------------------------------------------|
A|------5------5--------5--5--3p0-----------5----5--------5--5--3p0---------|
D|-0---------0---3-5~--5---------3p0-----0-----0---3-5~--5----------3p0-----|

e|--------------------------------------------------------------------------|
B|--------------------------------------------------------------------------|
G|--------------------------------------------------------------------------|
D|--------------------------------------------------------------------------|
A|------5------5--------5--5--3p0-----------5----5--------5--5--3p0---------|
D|-0---------0---3-5~--5---------3p0-----0-----0---3-5~--5----------3p0-----|
_____________________________________long pause before guitar comes in
solo part
e|--------15-1515--15--15--15-1515x2-----18-1818--18--18--18-1818x2---------|
B|--------------------------------------------------------------------------|
G|--------------------------------------------------------------------------|
D|--------------------------------------------------------------------------|
A|--------------------------------------------------------------------------|
D|--------------------------------------------------------------------------|

intro/chorus
e|--------------------------------------------------------------------------|
B|--------------------------------------------------------------------------|
G|--------------------------------------------------------------------------|
D|--------------------------------------------------------------------------|
A|------5------5--------5--5--3p0-----------5----5--------5--5--3p0---------|
D|-0---------0---3-5~--5---------3p0-----0-----0---3-5~--5----------3p0-----|

e|--------------------------------------------------------------------------|
B|--------------------------------------------------------------------------|
G|--------------------------------------------------------------------------|
D|--------------------------------------------------------------------------|
A|------5------5--------5--5--3p0-----------5----5--------5--5--3p0---------|
D|-0---------0---3-5~--5---------3p0-----0-----0---3-5~--5----------3p0-----|

e|--------------------------------------------------------------------------|
B|--------------------------------------------------------------------------|
G|--------------------------------------------------------------------------|
D|--------------------------------------------------------------------------|
A|------5------5--------5--5--3p0-----------5----5--------5--5--3p0---------|
D|-0---------0---3-5~--5---------3p0-----0-----0---3-5~--5----------3p0-----|

e|--------------------------------------------------------------------------|
B|--------------------------------------------------------------------------|
G|--------------------------------------------------------------------------|
D|--------------------------------------------------------------------------|
A|------5------5--------5--5--3p0-----------5----5--------5--5--3p0---------|
D|-0---------0---3-5~--5---------3p0-----0-----0---3-5~--5----------3p0-----|


Thats it!! enjoy it i guess..and don't bet on vanderjact anymore :)...
Добавлено: 12.05.2012
Другие материалы по этой песне:

Страница создана 21.02.2012
http://primanota.ru/anarchy-club/behind-the-mask-chords.htm
Привет, Гость.
Предлагаем пройти революционный курс по гитаре.
Подарок от PrimaNota.Ru, забирай!