PrimaNota.ru - самый крупный в мире бесплатный архив песенных текстов, аккордов, табулатур и нот


Anarbor - Every High Has A Come Down - таба, видео

Регистрация Запомнить меня
Войти через:  Facebook Google Twitter Vk Yandex Mail.ru

Anarbor - Every High Has A Come Down - таба, видео

Печатать
Просмотров: 145
My ear isn't that great so parts might be off, but I think most of it is right.
I couldn't make out the main guitar in the chorus or in the solo so I didn't include it.
If you know these parts I would be glad to update the tab and give you credit!

Also, I included chord names of the power chords throughout the song, so that it can be transcribed
to acoustic more easily.

Legend
-------------|
/: Slide up  |
p: Pull off  |
.: Palm mute |
-------------|


Intro/Main Riff
e|------------------------|
B|------------------------|
G|------------------------| x4
D|------------------------|
A|---7-5-3p2--------------|
E|-5---------0-1-0-1/3----|



("Blame it on chem...")   ("Your poison's...")
                            C    G
e|--------------------|   |------------------|
B|--------------------|   |------------------|
G|--------------------|   |-5~---------------|
D|--------------------|   |-5~---5~----------|
A|--------------------|   |-3~---5~----------|
E|-555-444-333-22-----|   |------3~----------|

                          These can be 16th notes if preferred

("I'm all strung out...")
    A     C     G     F
e|--------------------------|
B|--------------------------|
G|-------555----------------| x2
D|-777---555---555---333----|
A|-777---333---555---333----|
E|-555---------333---111----|
:| ..    ..    ..    .. 



("You're twisting ...")   ("All you can give...")
                            C    G    D    G
e|--------------------|   |---------------------|
B|--------------------|   |---------------------|
G|--------------------|   |-5~--------7~--------|
D|--------------------|   |-5~---5~---5~---5~---|
A|--------------------|   |-3~---5~---5~---5~---|
E|-555-444-333-22-----|   |------3~--------3~---|

                          These can be 16th notes if preferred

Chorus ("You're Inside...")
   F  C   G    A   G
e|------------------------|----------------------|
B|------------------------|----------------------|
G|----55------------------|----55----------------|  x2
D|-3--55--5-5--77--5------|-3--55--5-5--77~------|
A|-3--33--5-5--77--5------|-3--33--5-5--77~------|
E|-1------3-3--55--3------|-1------3-3--55~------|
                            
                          The second half can be played
                          normally but in the song it sounds
                          like it rings out        


("I was there in ...")
   F       E
e|-------------------|
B|-------------------|
G|-------------------|
D|-3-------2---------|
A|-3-x16---2-x16-----|
E|-1-------0---------|



Gtr1("Has a comedown...")
e|------------------------|
B|------------------------|
G|------------------------| x2
D|------------------------|
A|---7-5-3p2--------------|
E|-5---------0-1-0-1/3----|

Gtr2("Has a comedown")
e|-------------------|
B|-------------------|
G|-14-----14-10-12-14| x2
D|-x--x6--x--x--x--x-|
A|-12-----12-8--10-12|
E|-------------------|



("Your'e haunting me, yo...")
    A     C     G     F
e|--------------------------|
B|--------------------------|
G|-------555----------------| x2
D|-777---555---555---333----|
A|-777---333---555---333----|
E|-555---------333---111----|
:| ..    ..    ..    .. 




("You keep control...")   ("Is this never en...")
                            C    G    D    G
e|--------------------|   |---------------------|
B|--------------------|   |---------------------|
G|--------------------|   |-5~--------7~--------|
D|--------------------|   |-5~---5~---5~---5~---|
A|--------------------|   |-3~---5~---5~---5~---|
E|-555-444-333-22-----|   |------3~--------3~---|



Chorus ("You're Inside...")
   F  C   G    A   G
e|------------------------|----------------------|
B|------------------------|----------------------|
G|----55------------------|----55----------------|  x2
D|-3--55--5-5--77--5------|-3--55--5-5--77~------|
A|-3--33--5-5--77--5------|-3--33--5-5--77~------|
E|-1------3-3--55--3------|-1------3-3--55~------|
                            
  

("I was there in ...")
   F       E
e|-------------------|
B|-------------------|
G|-------------------|
D|-3-------2---------|
A|-3-x16---2-x16-----|
E|-1-------0---------|



Gtr1("Has a comedown...")
e|------------------------|
B|------------------------|
G|------------------------| x2
D|------------------------|
A|---7-5-3p2--------------|
E|-5---------0-1-0-1/3----|

Gtr2("Has a comedown")
e|-------------------|
B|-------------------|
G|-14-----14-10-12-14| x2
D|-x--x6--x--x--x--x-|
A|-12-----12-8--10-12|
E|-------------------|



Solo(Rhythm)
    C       G       A       F      G
e|--------------------------------------|
B|--------------------------------------|
G|--5-----------------------------------|
D|--5-x16---5-------7-------3------5----|
A|--3-------5-x16---7-x16---3-x8---5-x8-|
E|----------3-------5-------1------3----|



Chorus ("You're Inside...")
   F  C   G    A   G
e|------------------------|----------------------|
B|------------------------|----------------------|
G|----55------------------|----55----------------|  x4
D|-3--55--5-5--77--5------|-3--55--5-5--77~------|
A|-3--33--5-5--77--5------|-3--33--5-5--77~------|
E|-1------3-3--55--3------|-1------3-3--55~------|
   
                         
  
("I was there in ...")
   F       E
e|-------------------|
B|-------------------|
G|-------------------|
D|-3-------2---------|
A|-3-x16---2-x16-----|
E|-1-------0---------|




Gtr1("Has a comedown...")
e|------------------------|
B|------------------------|
G|------------------------| x2
D|------------------------|
A|---7-5-3p2--------------|
E|-5---------0-1-0-1/3----|

Gtr2("Has a comedown")
e|-------------------|
B|-------------------|
G|-14-----14-10-12-14| x2
D|-x--x6--x--x--x--x-|
A|-12-----12-8--10-12|
E|-------------------|
Добавлено: 21.07.2014
Другие материалы по этой песне:
  • Аккорды и текст

Страница создана 22.06.2013
http://primanota.ru/anarbor/every-high-has-a-come-down-chords.htm
Привет, Гость.
Предлагаем пройти революционный курс по гитаре.
Подарок от PrimaNota.Ru, забирай!