PrimaNota.ru - самый крупный в мире бесплатный архив песенных текстов, аккордов, табулатур и нот


Anarbor - Damage Ive Done - таба, видео

Регистрация Запомнить меня
Войти через:  Facebook Google Twitter Vk Yandex Mail.ru

Anarbor - Damage Ive Done - таба, видео

Печатать
Просмотров: 176
Уроки эстрадного вокала в Санкт-Петербурге
-------------------------------------------------------------------------------
                             Damage I've Done - Anarbor
-------------------------------------------------------------------------------
Tabbed by:Arsenalkid
E-mail: tristan.gaudin1995@me.com

Tuning: Standard


[Intro and verse] {clean}

e|-----------------------------------------------------------------------------|
B|-----------------------------------------------------------------------------|
G|-----------------------------------------------------------------------------|
D|---------3---3--3--3---------------------------------------------------------|
A|-------4----4--1-------4---4-4-----4-6-4----x10------------------------------|
E|------------------4--2-----------2-------------------------------------------|

Lead in Verse

Not sure about this but I think it goes something like

e|------------------------------------------------------------------------------|
B|--------6--6--7--6--9--9------------------------------------------------------|
G|---------6--6--6--6--6--6-----------------------------------------------------|
D|------------------------------------------------------------------------------|
A|------------------------------------------------------------------------------|
E|------------------------------------------------------------------------------|

[Chorus]

e|---xxxxx--------------------------------------------------------------------|
B|---xxxxx--------------------------------------------------------------------|
G|---xxxxx--66666666----------88888888----------------------------------------|
D|---xxxxx--66666666-44444444-88888888-66666666-------------------------------|
A|---xxxxx--44444444-44444444-68888888-66666666-----x2------------------------|
E|---xxxxx-----------22222222-66666666-44444444-------------------------------|

Then

e|-----------------------------------------------------------------------------|
B|-----------------------------------------------------------------------------|
G|-----------88888888-----------8888-------------------------------------------|
D|--44444444-88888888-444444444-8888-6-----------------------------------------|
A|--44444444-66666666-444444444-6666-6-----------------------------------------|
E|--22222222-66666666-222222222-6666-4-----------------------------------------|

Then the verse again with something like this on top


e|-----------------------------------------------------------------------------|
B|-----------------------------------------------------------------------------|
G|---10-11--10--8--6-------1---------------------------------------------------|
D|---11-13--11--9--8-------3---------------------------------------------------|
A|-----------------------------------------------------------------------------|
E|-----------------------------------------------------------------------------|

After the verse play the chorus again


[Bridge]

Rhythm

e|-----------------------------------------------------------------------------|
B|-----------------------------------------------------------------------------|
G|----------------------------------------8-8-8/14-----------------------------|
D|----8-8-8--xxxx--6-6-6-xxxx-4-4-4--xxxx-8-8-8/14-----------------------------|
A|----8-8-8--xxxx--6-6-6-xxxx-4-4-4--xxxx-6-6-6/12-----------------------------|
E|----6-6-6--xxxx--4-4-4-xxxx-2-2-2--xxxx-6-6-6/-------------------------------|

The end bit is probably wrong but its the most that I can get.

e|-----------------------------------------------------------------------------|
B|-----------------------------------------------------------------------------|
G|-----------------------------------------10-8-6--14-13-11--------------------|
D|----8-8-8--xxxx--6-6-6-xxxx-4-4-4--xxxx--10-8-6--14-13-11--------------------|
A|----8-8-8--xxxx--6-6-6-xxxx-4-4-4--xxxx--8--6-4--12-11-9---------------------|
E|----6-6-6--xxxx--4-4-4-xxxx-2-2-2--xxxx--------------------------------------|

[Bridge] Lead

e|-----------------------------------------------------------------------------|
B|----14-14-13-14--x3----18-18-16-18---x2---18-18-16-18-18-16-14---------------|
G|-----------------------------------------------------------------------------|
D|-----------------------------------------------------------------------------|
A|-----------------------------------------------------------------------------|
E|-----------------------------------------------------------------------------|


e|-----------------------------------------------------------------------------|
B|-----------------------------------------------------------------------------|
G|---------8----------------8-------------8------------------------------------|
D|--4------8--------4-------8------4------8-------4---------6------------------|
A|--2------6--------4-------6------4------6-------4---------6------------------|
E|--2------6--------2-------6------2------6-------2---------4------------------|


Then the chorus again and the intro


Enjoy :)


************************************

| /   slide up
| \   slide down
| h   hammer-on
| p   pull-off
| ~   vibrato
| +   harmonic
| x   Mute note
| b   Bend
| pb  Pre-bend
| br  Bend release
| pbr Pre-bend release
| brb Bend release bend

************************************
Добавлено: 14.11.2013
Другие материалы по этой песне:
  • Аккорды и текст

Страница создана 14.11.2013
http://primanota.ru/anarbor/damage-ive-done-chords.htm
Привет, Гость.
Предлагаем пройти революционный курс по гитаре.
Подарок от PrimaNota.Ru, забирай!