PrimaNota.ru - самый крупный в мире бесплатный архив песенных текстов, аккордов, табулатур и нот


Anarbor - Contagious - таба, бас-таба, видео

Регистрация Запомнить меня
Войти через:  Facebook Google Twitter Vk Yandex Mail.ru

Anarbor - Contagious - таба, бас-таба, видео

Печатать
Просмотров: 174
Artist: Anarbor 
Song: Contagious
Album: The Words You Don't Swallow
Tabbed by: gustavoaraujo999@hotmail.com

[Edit: 16/12/2011 - tried to fix PM parts and added some other bits]

[Intro]
e|------------------------------------------|
B|-777--------------------------------------|
G|-888-xx-xx-866-xx-xx-44444----------------|
D|-888-xx-xx-866-xx-xx-44444--------4-3-----| [x2]
A|-666-xx-xx-644-xx-xx-22222------------5~--|
E|----------------------------4-6-7---------|

[Verse 1]
e|------------------------------------------------------------------|
B|------------------------------------------------------------------|
G|--------------------------------------------------6--5--4--3------|
D|--------------------------------------------------x--x--x--x------|
A|--------------------------------------------------4--3--2--1------|
E|------------------------------------------------------------------|

e|-------------------------|----------------------------------------|
B|-------------------------|----------------------------------------|
G|-------------------------|------------------------6--5--4--3------|
D|-------------------------|------------------------x--x--x--x------|
A|---------------3-2-0-2---|---------------3-2-0----4--3--2--1------|
E|-0--0-1--0-1-3---------0-|-0--0-2--0-2-3-------3------------------|

[Pre-chorus]
e|----------------------------------------------------------------|
B|----------------------------------------------------------------|
G|------4444-8888-6666--------------------------------------------|
D|-6666-4444-8888-6666--6666-8888---------------------------------|
A|-6666-2222-6666-4444--6666-8888---------------------------------|
E|-4444-----------------4444-6666---------------------------------|

e|-11~--14^-11~--------------------------|
B|---------------------------------------|
G|--------------------11-10---...--------|
D|--------------11-13--------------------|
A|---------------------------------------|
E|---------------------------------------|
 
[Chorus]
e|-----------------------------------------|
B|-777-------------------------------------|
G|-888-xx-xx-x66-xx-xx-44444---------------|
D|-888-xx-xx-x66-xx-xx-44444--------4-3----| [x2]
A|-666-xx-xx-x44-xx-xx-22222------------5~-|
E|----------------------------4-6-7--------|

e|-----------------------------------------|
B|-7777777---------------------------------|
G|-8888888-6666666-4444444-----------------|
D|-8888888-6666666-4444444----------4-3----|
A|-6666666-4444444-2222222--------------5~-|
E|----------------------------4-6-7--------|

e|-----------------------------------------|
B|-----------------------------------------|
G|----------------444444--3-3-3------------|
D|-6666666666666--444444--3-3-3------------|
A|-6666666666666--222222--1-1-1------------|
E|-4444444444444---------------------------|
 
e|-----6--------------------|
B|-------7-9~--------9-6h7--|
G|-6h8-----------6h8--------|
D|--------------------------|
A|--------------------------|
E|--------------------------|
 
[Post-chorus]
e|-------------------|----------------------------------------|
B|-------------------|----------------------------------------|
G|-------------------|----------------------------------------|
D|-------------------|----------------------------------------|
A|---------3-2-0-2---|----------------------------------------|
E|---0-1-3---------0-|----------------------------------------|

[Verse 2]
e|-------------------------|----------------------------------------|
B|-------------------------|----------------------------------------|
G|-------------------------|------------------------6--5--4--3------|
D|-------------------------|------------------------x--x--x--x------| [x2]
A|---------------3-2-0-2---|---------------3-2-0-2--4--3--2--1------|
E|-0--0-1--0-1-3---------0-|-0--0-1--0-1-3--------------------------|

[Pre-chorus]
e|----------------------------------------------------------------|
B|----------------------------------------------------------------|
G|------4444-8888-6666--------------------------------------------|
D|-6666-4444-8888-6666--6666-8888---------------------------------|
A|-6666-2222-6666-4444--6666-8888---------------------------------|
E|-4444-----------------4444-6666---------------------------------|

[Chorus]
e|-----------------------------------------|
B|-777-------------------------------------|
G|-888-xx-xx-x66-xx-xx-44444---------------|
D|-888-xx-xx-x66-xx-xx-44444--------4-3----| [x2]
A|-666-xx-xx-x44-xx-xx-22222------------5~-|
E|----------------------------4-6-7--------|

e|-----------------------------------------|
B|-77777777--------------------------------|
G|-88888888-66666666-4444444---------------|
D|-88888888-66666666-4444444--------4-3----|
A|-66666666-44444444-2222222------------5~-|
E|----------------------------4-6-7--------|

e|-----------------------------------------|
B|-----------------------------------------|
G|--------------------444444--3-3-3--------|
D|-66666666666666666--444444--3-3-3--------|
A|-66666666666666666--222222--1-1-1--------|
E|-44444444444444444-----------------------|

e|-----6--------------------|
B|-------7-9~--------9-6h7--|
G|-6h8-----------6h8--------|
D|--------------------------|
A|--------------------------|
E|--------------------------|
 
[Solo]
e|------------------------------------------------------------------|
B|----7--------7--------7---7--10^-9-7-9-7--------------------------|
G|-6-8--8---6-8--8---6-8--8-----------------------------------------|
D|------------------------------------------------------------------|
A|------------------------------------------------------------------|
E|------------------------------------------------------------------|

e|-------14-----------14------------14----14------------------------|
B|-14-16----16---14-16---16---14-16----16---------------------------|
G|--------------------------------------------6^--8^--10^--12^------|
D|------------------------------------------------------------------|
A|------------------------------------------------------------------|
E|------------------------------------------------------------------|

[Bridge]
e|------------------------------------------------------------------|
B|------------------------------------------------------------------|
G|---------444444-888888-666666------------444444-888888-666666-----|
D|--666666-444444-888888-666666----666666--444444-888888-666666-----|
A|--666666-222222-666666-444444----666666--222222-666666-444444-----|
E|--444444-------------------------444444---------------------------|

e|------------------------------------------------------------------|
B|------------------------------------------------------------------|
G|------------------------------------------------------------------|
D|-666666--8~-------------------------------------------------------|
A|-666666--8~-------------------------------------------------------|
E|-444444--6~-------------------------------------------------------|

[Chorus]
e|-----------------------------------------|
B|-777-------------------------------------|
G|-888-----------------44444---------------|
D|-888-----------------44444--------4-3----| [x2]
A|-666-----------------22222------------5~-|
E|----------------------------4-6-7--------|

e|-----------------------------------------|
B|-7777777---------------------------------|
G|-8888888-6666666-4444444-----------------|
D|-8888888-6666666-4444444----------4-3----|
A|-6666666-4444444-2222222--------------5~-|
E|----------------------------4-6-7--------|

e|-----------------------------------------|
B|-----------------------------------------|
G|--------------------444444--3-3-3--------|
D|-66666666666666666--444444--3-3-3--------| [x2]
A|-66666666666666666--222222--1-1-1--------|
E|-44444444444444444-----------------------|

[Outro]
e|-----------------------------------------|
B|-777-------------------------------------|
G|-888-xx-xx-x66-xx-xx-44444---------------|
D|-888-xx-xx-x66-xx-xx-44444--------4-3----| [x2]
A|-666-xx-xx-x44-xx-xx-22222------------5~-|
E|----------------------------4-6-7--------|
Добавлено: 11.07.2012
Другие материалы по этой песне:
  • Аккорды и текст

Страница создана 11.07.2012
http://primanota.ru/anarbor/contagious-chords.htm
Привет, Гость.
Предлагаем пройти революционный курс по гитаре.
Подарок от PrimaNota.Ru, забирай!