PrimaNota.ru - самый крупный в мире бесплатный архив песенных текстов, аккордов, табулатур и нот


Anarbor - Anatomy - таба, видео

Регистрация Запомнить меня
Войти через:  Facebook Google Twitter Vk Yandex Mail.ru

Anarbor - Anatomy - таба, видео

Печатать
Просмотров: 114
----------------------------------------------------------------------------
                             Anatomy - Anarbor
----------------------------------------------------------------------------
Tabbed by: Jason 
Email: Aeronautic11@aol.com

Note: No Strumming Pattern In This Tab
Tuning: Standard EADGBE
    
|----7----7----7----7----0----0----0----0----0----0----0----0----0----0-----|
|----5----5----5----5----5----5----5----5----0----0----0----0----0----0-----|
|----x----x----x----x----6----6----6----6----4----4----4----4----4----4-----|
|----6----6----6----6----4----4----4----4----2----2----2----2----2----2-----|
|----7----7----6----6----0----0----0----0----4----4----4----4----4----4-----|
|---------------------------------------------------------------------------|

|----7----7----7----7----7----7----7----7----7----7----7----7----0----0-----|
|----5----5----5----5----5----5----5----5----5----5----5----5----5----5-----|
|----x----x----x----x----x----x----x----x----x----x----x----x----6----6-----|
|----6----6----6----6----6----6----6----6----6----6----6----6----4----4-----|
|----7----7----7----7----6----6----6----6----6----6----6----6----0----0-----|
|---------------------------------------------------------------------------|

|----0----0----0----0----0----0----0----0----0----0----0----0----0----0-----|
|----5----5----5----5----5----5----0----0----0----0----0----0----0----0-----|
|----6----6----6----6----6----6----2----2----2----2----2----2----2----2-----|
|----4----4----4----4----4----4----4----4----4----4----4----4----4----4-----|
|----0----0----0----0----0----0----2----2----2----2----2----2----2----2-----|
|---------------------------------------------------------------------------|

|----7----7----7----7----7----7----7----7----7----7----7----7----7----7-----|
|----5----5----5----5----5----5----5----5----5----5----5----5----5----5-----|
|----x----x----x----x----x----x----x----x----x----x----x----x----x----x-----|
|----6----6----6----6----6----6----6----6----6----6----6----6----6----6-----|
|----7----7----7----7----7----7----7----7----7----7----7----7----7----7-----|
|---------------------------------------------------------------------------|

|----7----7----7----7----7----7----7----7----7----7----7----7----7----7-----|
|----5----5----5----5----5----5----5----5----5----5----5----5----5----5-----|
|----x----x----x----x----x----x----x----x----x----x----x----x----x----x-----|
|----6----6----6----6----6----6----6----6----6----6----6----6----6----6-----|
|----7----7----6----6----6----6----6----6----6----6----6----6----6----6-----|
|---------------------------------------------------------------------------|

|----7----7----7----7----0----0----0----0----0----0----0----0----0----0-----|
|----5----5----5----5----5----5----5----5----5----5----5----5----5----5-----|
|----x----x----x----x----6----6----6----6----6----6----6----6----6----6-----| 
|----6----6----6----6----4----4----4----4----4----4----4----4----4----4-----|
|----6----6----6----6----0----0----0----0----0----0----0----0----0----0-----|
|---------------------------------------------------------------------------|

|----0----0----0----0----0----0----0----0----0----0----0----0----0----0-----|
|----5----5----5----5----5----5----0----0----0----0----0----0----0----0-----|
|----6----6----6----6----6----6----4----4----4----4----4----4----4----4-----|
|----4----4----4----4----4----4----2----2----2----2----2----2----2----2-----|
|----0----0----0----0----0----0----4----4----4----4----4----4----4----4-----|
|---------------------------------------------------------------------------|

|----0----0----0----0----0----0----0----0-----------------------------------|
|----0----0----0----0----0----0----0----0-----------------------------------|
|----4----4----4----4----4----4----4----4----2----2----2----2----2/4--------|
|----2----2----2----2----2----2----2----2----0----0----0----0----0/0--------|
|----4----4----4----4----4----4----4----4----0----0----0----0----0/0--------|
|---------------------------------------------------------------------------|

|--------------------------------------------------------7----7----7--------|
|--------------------------------------------------------7----7----7--------|
|----4----4----4----4----4/6----6----6----6----6----6----9----9----9--------|
|----0----0----0----0----0/0----0----0----0----0----0----9----9----9--------|
|----0----0----0----0----0/0----0----0----0----0----0----7----7----7--------|
|--------------------------------------------------------7----7----7--------|

|----7----7----7----7----7----7----7----7----7----7----7----7----7----7-----|
|----7----7----7----7----7----7----7----7----7----7----7----7----7----7-----|
|----9----9----9----9----9----9----9----9----9----9----9----9----9----9-----|
|----9----9----9----9----9----9----9----9----9----9----9----9----9----9-----|
|----7----7----7----7----7----7----7----7----7----7----7----7----7----0-----|
|----7----7----7----7----7----7----7----7----7----7----7----7----7----0-----|

|----7----7----7----7----7----7----7----7----7----7----7----7----7----7-----|
|----7----7----7----7----7----7----7----7----7----7----7----7----7----7-----|
|----9----9----9----9----9----9----9----9----9----9----9----9----9----9-----|
|----9----9----9----9----9----9----9----9----9----9----9----9----9----9-----|
|----0----0----0----0----0----0----0----0----0----0----0----0----0----0-----|
|----0----0----0----0----0----0----0----0----0----0----0----0----0----0-----|

|----7----2----2----2----2----2----2----2----2----4----4----4----4----4-----|
|----7----2----2----2----2----2----2----2----2----4----4----4----4----4-----|
|----9----2----2----2----2----2----2----2----2----4----4----4----4----4-----|
|----9----4----4----4----4----4----4----4----4----6----6----6----6----6-----|
|----0----4----4----4----4----4----4----4----4----6----6----6----6----6-----|
|----0----2----2----2----2----2----2----2----2----4----4----4----4----4-----|

|----4----4----4----6----6----6----6----6----6----4----4----4----4----4-----|
|----4----4----4----6----6----6----6----6----6----4----4----4----4----4-----|
|----4----4----4----6----6----6----6----6----6----4----4----4----4----4-----|
|----6----6----6----8----8----8----8----8----8----6----6----6----6----6-----|
|----6----6----6----8----8----8----8----8----8----6----6----6----6----6-----|
|----4----4----4----6----6----6----6----6----6----4----4----4----4----4-----|

|----4----4----6----6----6----6----4----4----4----4----0----0----0----0-----|
|----4----4----6----6----6----6----4----4----4----4----5----5----5----5-----|
|----4----4----6----6----6----6----4----4----4----4----x----x----x----x-----|
|----6----6----8----8----8----8----6----6----6----6----6----6----6----6-----|
|----6----6----8----8----8----8----6----6----6----6----7----7----7----7-----|
|----4----4----6----6----6----6----4----4----4----4-------------------------|

|----0----0----0----0----0----0----0----0----0----0----0----0----0----0-----|
|----5----0----0----0----0----0----0----0----0----0----0----0----0----0-----|
|----x----2----2----2----2----2----2----2----2----1----1----1----1----1-----|
|----6----2----2----2----2----2----2----2----2----2----2----2----2----2-----|
|----7----0----0----0----0----0----0----0----0----2----2----2----2----2-----|
|---------0----0----0----0----0----0----0----0----0----0----0----0----0-----|

|----0----0----0----0----0----0----0----0----0----0----0----0----0----0-----|
|----0----0----0----0----0----0----0----0----0----0----0----0----0----0-----|
|----1----1----1----0----0----0----0----0----0----0----0----2----2----2-----|
|----2----2----2----2----2----2----2----2----2----2----2----2----2----2-----|
|----2----2----2----2----2----2----2----2----2----2----2----0----0----0-----|
|----0----0----0----0----0----0----0----0----0----0----0----0----0----0-----|

|----0----0----0----0----0----2----2----2----2----4----4----2----7----7-----|
|----0----0----0----0----0----2----2----2----2----4----4----3----5----5-----|
|----2----2----2----2----2----2----2----2----2----4----4----2----x----x-----|
|----2----2----2----2----2----2----2----2----2----4----4----0----6----6-----|
|----0----0----0----0----0----2----2----2----2----4----4----0----7----7-----|
|----0----0----0----0----0----2----2----2----2----4----4--------------------|

|----7----7----7----7----7----7----7----7----7----7----7----7----7----7-----|
|----5----5----5----5----5----5----5----5----5----5----5----5----5----5-----|
|----x----x----x----x----x----x----x----x----x----x----x----x----x----x-----|
|----6----6----6----6----6----6----6----6----6----6----6----6----6----6-----|
|----7----7----7----7----7----7----7----7----7----7----7----7----7----7-----|
|---------------------------------------------------------------------------|

|----7----7----7----7----7----7----7----7----7----7----7----7----7----7-----|
|----5----5----5----5----5----5----5----5----5----5----5----5----5----5-----|
|----x----x----x----x----x----x----x----x----x----x----x----x----x----x-----|
|----6----6----6----6----6----6----6----6----6----6----6----6----6----6-----|
|----6----6----6----6----6----6----6----6----6----6----6----6----6----6-----|
|---------------------------------------------------------------------------|

|----0----0----0----0----0----0----0----0----0----0----0----0----0----0-----|
|----0----0----0----0----0----0----0----0----0----0----0----0----0----0-----|
|----4----4----4----4----4----4----4----4----4----4----4----4----4----4-----|
|----4----4----4----4----4----4----4----4----4----4----4----4----4----4-----|
|----6----6----6----6----6----6----6----6----6----6----6----6----6----6-----|
|----0----0----0----0----0----0----0----0----0----0----0----0----0----0-----|

|----0----0----0----0----0----0----0----0----0----0----0----0----0----0-----|
|----0----0----0----0----0----0----0----0----0----0----0----0----0----0-----|
|----4----4----2----2----2----2----2----2----2----2----2----2----2----2-----|
|----4----4----2----2----2----2----2----2----2----2----2----2----2----2-----|
|----6----6----4----4----4----4----4----4----4----4----4----4----4----4-----|
|----0----0----0----0----0----0----0----0----0----0----0----0----0----0-----|

|---------------------------------------------------------------------------|
|---------------------------------------------------------------------------|
|----2----2----2----2----2/4----4----4----4----4----4/6----6----6----6----6-|
|----0----0----0----0----0/0----0----0----0----0----0/0----0----0----0----0-|
|----0----0----0----0----0/0----0----0----0----0----0/0----0----0----0----0-|
|---------------------------------------------------------------------------|

|---------7----7----7----7----7----7----7----7----7----7----7----7----7-----|
|---------7----7----7----7----7----7----7----7----7----7----7----7----7-----|
|----6----9----9----9----9----9----9----9----9----9----9----9----9----9-----|
|----0----9----9----9----9----9----9----9----9----9----9----9----9----9-----|
|----0----7----7----7----7----7----7----7----7----7----7----7----7----7-----|
|---------7----7----7----7----7----7----7----7----7----7----7----7----7-----|

|----7----7----7----7----7----7----7----7----7----7----7----7----7----7-----|
|----7----7----7----7----7----7----7----7----7----7----7----7----7----7-----|
|----9----9----9----9----9----9----9----9----9----9----9----9----9----9-----|
|----9----9----9----9----9----9----9----9----9----9----9----9----9----9-----|
|----7----7----7----0----0----0----0----0----0----0----0----0----0----0-----|
|----7----7----7----0----0----0----0----0----0----0----0----0----0----0-----|

|----7----7----7----7----7----2----2----2----2----2----2----2----2----4-----|
|----7----7----7----7----7----2----2----2----2----2----2----2----2----4-----|
|----9----9----9----9----9----2----2----2----2----2----2----2----2----4-----|
|----9----9----9----9----9----4----4----4----4----4----4----4----4----6-----|
|----0----0----0----0----0----4----4----4----4----4----4----4----4----6-----|
|----0----0----0----0----0----2----2----2----2----2----2----2----2----4-----|

|----4----4----4----4----4----4----4----6----6----6----6--------------------|
|----4----4----4----4----4----4----4----6----6----6----6--------------------|
|----4----4----4----4----4----4----4----6----6----6----6----6----6----6-----|
|----6----6----6----6----6----6----6----8----8----8----8----0----0----0-----|
|----6----6----6----6----6----6----6----8----8----8----8----0----0----0-----|
|----4----4----4----4----4----4----4----6----6----6----6--------------------|

|-------------------------------------------------7----7----7----7----7-----|
|-------------------------------------------------7----7----7----7----7-----|
|----6----4----4----4----4----6----6----6----6----9----9----9----9----9-----|
|----0----0----0----0----0----0----0----0----0----9----9----9----9----9-----|
|----0----0----0----0----0----0----0----0----0----7----7----7----7----7-----|
|-------------------------------------------------7----7----7----7----7-----|

|----7----7----7----7----7----7----7----7----7----7----7----7----0----0-----|
|----7----7----7----7----7----7----7----7----7----7----7----7----0----0-----|
|----9----9----9----9----9----9----9----9----9----9----9----9----9----9-----|
|----9----9----9----9----9----9----9----9----9----9----9----9----9----9-----|
|----7----7----7----7----7----7----7----7----7----7----7----7----9----9-----|
|----7----7----7----7----7----7----7----7----7----7----7----7----0----0-----|

|----0----0----0----0----0----0----0----0----0----0----0----0----0----0-----|
|----0----0----0----0----0----0----0----0----0----0----0----0----0----0-----|
|----9----9----9----9----9----9----9----9----9----9----9----9----9----9-----|
|----9----9----9----9----9----9----9----9----9----9----9----9----9----9-----|
|----9----9----9----9----9----9----9----9----9----9----9----9----9----9-----|
|----0----0----0----0----0----0----0----0----0----0----0----0----0----0-----|

|----2----2----2----2----2----2----2----2----4----4----4----4----4----4-----|
|----2----2----2----2----2----2----2----2----4----4----4----4----4----4-----|
|----2----2----2----2----2----2----2----2----4----4----4----4----4----4-----|
|----4----4----4----4----4----4----4----4----6----6----6----6----6----6-----|
|----4----4----4----4----4----4----4----4----6----6----6----6----6----6-----|
|----2----2----2----2----2----2----2----2----4----4----4----4----4----4-----|

|----4----4-----------------------------------------------------------------|
|----4----4-----------------------------------------------------------------|
|----4----4----8----8----8----6----6----6----4----4----8----8----8----6-----|
|----6----6----0----0----0----0----0----0----0----0----0----0----0----0-----|
|----6----6----0----0----0----0----0----0----0----0----0----0----0----0-----|
|----4----4-----------------------------------------------------------------|

|---------------------------------------------------------------------------|
|---------------------------------------------------------------------------|
|----6----6----4----4----2----2----2----2----2----2----2----2----2----2-----|
|----0----0----0----0----0----0----0----0----0----0----0----0----0----0-----|
|----0----0----0----0----0----0----0----0----0----0----0----0----0----0-----|
|---------------------------------------------------------------------------|


|---------------------------------------------------------------------------|
|------------------------2----2----2----2----2----2----2----2----2----2-----|
|----2----2----2----2----2----2----2----2----2----2----2----2----2----2-----|
|----0----0----0----0----0----0----0----0----0----0----0----0----0----0-----|
|----0----0----0----0-------------------------------------------------------|
|---------------------------------------------------------------------------|

|---------------------------------------------------------------------------|
|----2----2----2----2----2----2---------------------------------------------|
|----2----2----2----2----2----2----2----2----2----2----2----2----2----2-----|
|----0----0----0----0----0----0----0----0----0----0----0----0----0----0-----|
|----------------------------------0----0----0----0----0----0----0----0-----|
|---------------------------------------------------------------------------|

|---------------------------------------------------------------------------|
|--------------------------------------------2----2----2----2----2----2-----|
|----2----2----2----2----2----2----2----2----2----2----2----2----2----2-----|
|----0----0----0----0----0----0----0----0----0----0----0----0----0----0-----|
|----0----0----0----0----0----0----0----0-----------------------------------|
|---------------------------------------------------------------------------|

|---------------------------------------------------------------------------|
|----2----2----2----2----2----2----2----2----2----2-------------------------|
|----2----2----2----2----2----2----2----2----2----2----2----2----2----2-----|
|----0----0----0----0----0----0----0----0----0----0----0----0----0----0-----|
|------------------------------------------------------0----0----0----0-----|
|---------------------------------------------------------------------------|

|---------------------------------------------------------------------------|
|----------------------------------------------------------------2----2-----|
|----2----2----2----2----2----2----2----2----2----2----2----2----2----2-----|
|----0----0----0----0----0----0----0----0----0----0----0----0----0----0-----|
|----0----0----0----0----0----0----0----0----0----0----0----0---------------|
|---------------------------------------------------------------------------|

|---------------------------------------------------------------------------|
|----2----2----2----2----2----2----2----2----2----2----2----2----2----2-----|
|----2----2----2----2----2----2----2----2----2----2----2----2----2----2-----|
|----0----0----0----0----0----0----0----0----0----0----0----0----0----0-----|
|---------------------------------------------------------------------------|
|---------------------------------------------------------------------------|

|---------------------------------------------------------------------------|
|---------------------------------------------------------------------------|
|----2----2----2----2----2----2----2----2----2----2----2----2----2----2-----|
|----0----0----0----0----0----0----0----0----0----0----0----0----0----0-----|
|----0----0----0----0----0----0----0----0----0----0----0----0----0----0-----|
|---------------------------------------------------------------------------|

|---------------------------------------------------------------------------|
|--------------2----2----2----2----2----2----2----2----2----2----2----2-----|
|----2----2----2----2----2----2----2----2----2----2----2----2----2----2-----|
|----0----0----0----0----0----0----0----0----0----0----0----0----0----0-----|
|----0----0-----------------------------------------------------------------|
|---------------------------------------------------------------------------|

|------------------------x----x----x----x----7----7----7----7----7----7-----|
|----2----2----2----2----x----x----x----x----7----7----7----7----7----7-----|
|----2----2----2----2----x----x----x----x----9----9----9----9----9----9-----|
|----0----0----0----0----x----x----x----x----9----9----9----9----9----9-----|
|------------------------x----x----x----x----7----7----7----7----7----7-----|
|------------------------x----x----x----x----7----7----7----7----7----7-----|

|----7----7----7----7----7----7----7----7----7----7----7----7----7----7-----|
|----7----7----7----7----7----7----7----7----7----7----7----7----7----7-----|
|----9----9----9----9----9----9----9----9----9----9----9----9----9----9-----|
|----9----9----9----9----9----9----9----9----9----9----9----9----9----9-----|
|----7----7----7----7----7----7----7----7----7----7----0----0----0----0-----|
|----7----7----7----7----7----7----7----7----7----7----0----0----0----0-----|

|----7----7----7----7----7----7----7----7----7----7----7----7----2----2-----|
|----7----7----7----7----7----7----7----7----7----7----7----7----2----2-----|
|----9----9----9----9----9----9----9----9----9----9----9----9----4----4-----|
|----9----9----9----9----9----9----9----9----9----9----9----9----4----4-----|
|----0----0----0----0----0----0----0----0----0----0----0----0----2----2-----|
|----0----0----0----0----0----0----0----0----0----0----0----0----2----2-----|

|----2----2----2----2----2----2----4----4----4----4----4----4----4----4-----|
|----2----2----2----2----2----2----4----4----4----4----4----4----4----4-----|
|----4----4----4----4----4----4----6----6----6----6----6----6----6----6-----|
|----4----4----4----4----4----4----6----6----6----6----6----6----6----6-----|
|----2----2----2----2----2----2----4----4----4----4----4----4----4----4-----|
|----2----2----2----2----2----2----4----4----4----4----4----4----4----4-----|

|---------------------------------------------------------------------------|
|---------------------------------------------------------------------------|
|----8----8----8----6----6----6----8----8----8----8----8----8----8----8-----|
|----0----0----0----0----0----0----0----0----0----0----0----0----0----0-----|
|----0----0----0----0----0----0----0----0----0----0----0----0----0----0-----|
|---------------------------------------------------------------------------|

|----7----7----7----7----7----7----7----7----7----7----7----7----7----7-----|
|----7----7----7----7----7----7----7----7----7----7----7----7----7----7-----|
|----9----9----9----9----9----9----9----9----9----9----9----9----9----9-----|
|----9----9----9----9----9----9----9----9----9----9----9----9----9----9-----|
|----7----7----7----7----7----7----7----7----7----7----7----7----7----7-----|
|----7----7----7----7----7----7----7----7----7----7----7----7----7----7-----|

|----7----7----7----7----7----7----7----7----7----7----7----7----7----7-----|
|----7----7----7----7----7----7----7----7----7----7----7----7----7----7-----|
|----9----9----9----9----9----9----9----9----9----9----9----9----9----9-----|
|----9----9----9----9----9----9----9----9----9----9----9----9----9----9-----|
|----7----7----0----0----0----0----0----0----0----0----0----0----0----0-----|
|----7----7----0----0----0----0----0----0----0----0----0----0----0----0-----|

|----7----7----7----7----2----2----2----2----2----2----2----2----4----4-----|
|----7----7----7----7----2----2----2----2----2----2----2----2----4----4-----|
|----9----9----9----9----4----4----4----4----4----4----4----4----6----6-----|
|----9----9----9----9----4----4----4----4----4----4----4----4----6----6-----|
|----0----0----0----0----2----2----2----2----2----2----2----2----4----4-----|
|----0----0----0----0----2----2----2----2----2----2----2----2----4----4-----|

|----4----4----4----4----4----4---------------------------------------------|
|----4----4----4----4----4----4---------------------------------------------|
|----6----6----6----6----6----6----8----8----8----6----6----6----4----4-----|
|----6----6----6----6----6----6----0----0----0----0----0----0----0----0-----|
|----4----4----4----4----4----4----0----0----0----0----0----0----0----0-----|
|----4----4----4----4----4----4---------------------------------------------|

|---------------------------------------------------------------------------|
|---------------------------------------------------------------------------|
|----4----8----8----8----6----6----6----4----4----4----2--------------------|
|----0----0----0----0----0----0----0----0----0----0----0--------------------|
|----0----0----0----0----0----0----0----0----0----0----0--------------------|
|---------------------------------------------------------------------------|

| /  slide up
| \  slide down
| h  hammer-on
| p  pull-off
| ~  vibrato
| +  harmonic
| x  Mute note
=============================================================
Добавлено: 21.02.2012
Другие материалы по этой песне:
  • Аккорды и текст

Страница создана 21.02.2012
http://primanota.ru/anarbor/anatomy-chords.htm
Привет, Гость.
Предлагаем пройти революционный курс по гитаре.
Подарок от PrimaNota.Ru, забирай!