PrimaNota.ru - самый крупный в мире бесплатный архив песенных текстов, аккордов, табулатур и нот


Anarbor - Always Dirty Never Clean - таба, видео

Регистрация Запомнить меня
Войти через:  Facebook Google Twitter Vk Yandex Mail.ru

Anarbor - Always Dirty Never Clean - таба, видео

Печатать
Просмотров: 107
Artist: Anarbor
Song: Always Dirty, Never Clean
Album: Free Your Mind
Tabbed by: gustavoaraujo999@hotmail.com

[Edit 12/15/2011 - added some lead bits]

[Intro]
e|-----------------------------------------------------|
B|-----------------------------------------------------|
G|-9-9-9-9--10101010--7-7-7-7--9-9-9-9-----------------|
D|-9-9-9-9--10101010--7-7-7-7--9-9-9-9---[x2]----------|
A|-7-7-7-7--8-8-8-8---5-5-5-5--7-7-7-7-----------------|
E|-----------------------------------------------------|


[Verse 1]
 |G1
e|-----7---7-------------8----8-------------7---7-----------7---7---|
B|------------------------------------------------------------------|
G|-9-9---9---9---9-10-10---10---10---10-7-7---7---7-7---9-9--9---9--|
D|------------------------------------------------------------------|
A|------------------------------------------------------------------|
E|------------------------------------------------------------------|
 |G2
e|-----------------------------------------------------|
B|-----------------------------------------------------|
G|-9-9-9-9--10101010--7-7-7-7--9-9-9-9-----------------|
D|-9-9-9-9--10101010--7-7-7-7--9-9-9-9---[x4]----------|
A|-7-7-7-7--8-8-8-8---5-5-5-5--7-7-7-7-----------------|
E|-----------------------------------------------------|


[Chorus]
 |G1
e|----------------------------------------------------------|
B|---------12-12-12h13------------12-12-12h13-13/10---------|
G|-7-7-------------------7-7--------------------------------|
D|-7-7-7-7---------------7-7-7-7----------------------------|
A|-5-5-7-7---------------5-5-7-7----------------------------|
E|-----5-5-------------------5-5----------------------------|
 |G2
e|----------------------------------------------|
B|----------------------------------------------|
G|-7-7-------------------7-7--------------------|
D|-7-7--2-2--5-5--7-7\---7-7--7-7--5-5--7-7\----|
A|-5-5--2-2--5-5--7-7\---5-5--7-7--5-5--7-7\----|
E|------0-0--3-3--5-5\--------5-5--3-3--5-5\----|

e|-----------------------------------------------------(5~)-|
B|-----------(12-12-12h13)----------------------------------|
G|-7-7------------------------------------------------------|
D|-7-7--7-7--5-5--2-2---3-3-3-3-3-3-3-3--5-5-5-5-5-5-5--7~--|
A|-5-5--7-7--5-5--2-2---3-3-3-3-3-3-3-3--5-5-5-5-5-5-5--7~--|
E|------5-5--3-3--0-0---1-1-1-1-1-1-1-1--3-3-3-3-3-3-3--5~--|


[Interlude]
e|-----------------------------------------------------|
B|-----------------------------------------------------|
G|-9-9-9-9--10101010--7-7-7-7--9-9-9-9-----------------|
D|-9-9-9-9--10101010--7-7-7-7--9-9-9-9---[x2]----------|
A|-7-7-7-7--8-8-8-8---5-5-5-5--7-7-7-7-----------------|
E|-----------------------------------------------------|


[Verse 2]
|G1
e|-----7---7-------------8----8-------------7---7-----------7---7---|
B|------------------------------------------------------------------|
G|-9-9---9---9---9-10-10---10---10---10-7-7---7---7-7---9-9--9---9--|
D|------------------------------------------------------------------|
A|------------------------------------------------------------------|
E|------------------------------------------------------------------|
 |G2
e|-----------------------------------------------------|
B|-----------------------------------------------------|
G|-9-9-9-9--10101010--7-7-7-7--9-9-9-9-----------------|
D|-9-9-9-9--10101010--7-7-7-7--9-9-9-9---[x4]----------|
A|-7-7-7-7--8-8-8-8---5-5-5-5--7-7-7-7-----------------|
E|-----------------------------------------------------|
 

[Chorus]
|G1
e|----------------------------------------------------------|
B|---------12-12-12h13------------12-12-12h13-13/10---------|
G|-7-7-------------------7-7--------------------------------|
D|-7-7-7-7---------------7-7-7-7----------------------------|
A|-5-5-7-7---------------5-5-7-7----------------------------|
E|-----5-5-------------------5-5----------------------------|
 |G2
e|----------------------------------------------|
B|----------------------------------------------|
G|-7-7-------------------7-7--------------------|
D|-7-7--2-2--5-5--7-7\---7-7--7-7--5-5--7-7\----|
A|-5-5--2-2--5-5--7-7\---5-5--7-7--5-5--7-7\----|
E|------0-0--3-3--5-5\--------5-5--3-3--5-5\----|

e|-----------------------------------------------------(5~)-|
B|-----------(12-12-12h13)----------------------------------|
G|-7-7------------------------------------------------------|
D|-7-7--7-7--5-5--2-2---3-3-3-3-3-3-3-3--5-5-5-5-5-5-5--7~--|
A|-5-5--7-7--5-5--2-2---3-3-3-3-3-3-3-3--5-5-5-5-5-5-5--7~--|
E|------5-5--3-3--0-0---1-1-1-1-1-1-1-1--3-3-3-3-3-3-3--5~--|


[Bridge]
e|-------------------------------------------------------------------------|
B|-1010101010101010--9-9-9-9-9-9-9-9--8-8-8-8-8-8-8-8---7-7-7-7-7-7-7-7-7--|
G|-------------------------------------------------------------------------|
D|-------------------------------------------------------------------[x2]--|
A|-------------------------------------------------------------------------|
E|-------------------------------------------------------------------------|

e|-------------------------------------------------------------------|
B|-1010101010101010--999999999999--88888888888--777777777777---------|
G|-------------------------------------------------------------------|
D|-------------------------------------------------------------[x2]--|
A|----(wah + tremolo picking ^^^)------------------------------------|
E|-------------------------------------------------------------------|


[Last Chorus/Outro]
e|-----|-----------------------------------------------------(5~)-|
B|-----|-----------(12-12-12h13)----------------------------------|
G|-7-7-|-7-7------------------------------------------------------|
D|-7-7-|-7-7--7-7--5-5--2-2---3-3-3-3-3-3-3-3--5-5-5-5-5-5-5--7~--|
A|-5-5-|-5-5--7-7--5-5--2-2---3-3-3-3-3-3-3-3--5-5-5-5-5-5-5--7~--|
E|-----|------5-5--3-3--0-0---1-1-1-1-1-1-1-1--3-3-3-3-3-3-3--5~--|

|G1
e|-------|-----------------------------------|
B|-8h10~-|-10~-12-12-12^-10~--15-15-15^-13~--|
G|-------|-----------------------------------|
D|-------|-----------------------------------|
A|-------|-----------------------------------|
E|-------|-----------------------------------|
 |G2
e|-----------------------------------------------------------------|
B|-----------------------------------------------------------------|
G|-7-7-------------------7-7--------------------7-7----------------|
D|-7-7--2-2--5-5--7-7\---7-7--7-7--5-5--7-7\----7-7--7-7--5-5--2-2-|
A|-5-5--2-2--5-5--7-7\---5-5--7-7--5-5--7-7\----5-5--7-7--5-5--2-2-|
E|------0-0--3-3--5-5\--------5-5--3-3--5-5\---------5-5--3-3--0-0-|

 |G1
e|-1313-1212------1212-1010-------------1313-1212------1212-1010-------------------------|
B|-----------1313----------1212-9999--------------1313----------1212-9-9-9-9h10-10-10-10-|
G|---------------------------------------------------------------------------------------|
D|---------------------------------------------------------------------------------------|
A|---------------------------------------------------------------------------------------|
E|---------------------------------------------------------------------------------------|
 |G2
e|--------------------------------------------------------------------------------------|
B|--------------------------------------------------------------------------------------|
G|--------------------------------------------------------------------------------------|
D|-3-3-3-3-3-3-3-3--5-5-5-5-5-5-5--3-3-3-3-3-3-3-3--5-5-5-5-5-5-5-5--7--7--7--7--7--7\--|
A|-3-3-3-3-3-3-3-3--5-5-5-5-5-5-5--3-3-3-3-3-3-3-3--5-5-5-5-5-5-5-5--7--7--7--7--7--7\--|
E|-1-1-1-1-1-1-1-1--3-3-3-3-3-3-3--1-1-1-1-1-1-1-1--3-3-3-3-3-3-4-4--5--5--5--5--5--5\--|
Добавлено: 19.06.2012
Другие материалы по этой песне:
  • Аккорды и текст

Страница создана 19.06.2012
http://primanota.ru/anarbor/always-dirty-never-clean-chords.htm
Привет, Гость.
Предлагаем пройти революционный курс по гитаре.
Подарок от PrimaNota.Ru, забирай!