PrimaNota.ru - самый крупный в мире бесплатный архив песенных текстов, аккордов, табулатур и нот


Anamanaguchi - Helix Nebula - таба, видео

Регистрация Запомнить меня
Войти через:  Facebook Google Twitter Vk Yandex Mail.ru

Anamanaguchi - Helix Nebula - таба, видео

Печатать
Просмотров: 201
Уроки эстрадного вокала в Санкт-Петербурге
Авторы: Peter Berkman

-----------------------------------------------------------------
Helix Nebula - Anamanaguchi
-----------------------------------------------------------------
Tabbed by: David Tamplen
Email: davidbtamplen@yahoo.com

*This is my first ever tab.
But I think I did a pretty 
Good job on it. and since 
there isnt a nother version 
anywhere. Here ya go!!!!

Tuning: Standard

(Intro)
e|---------------------------------------------------------------|
B|---------------------------------------------------------------|
G|------------4---------------------4---4---4-6-6-6-6-6----------|
D|4h6-4h6-4h6---6-4-6---4h6-4h6-4h6---6---6-------------3-5-3-5--|
A|---------------------------------------------------------------|
E|---------------------------------------------------------------|

e|---------------------------------|-----------------------------|
B|---------------------------------|-----------------------------|
G|-------Bend-up-while-playing.----|-----------------------------|
D|3-5/6^-(6x12)--------------------|--(6x11)-9-6~~~~~~~~~~~~~~~--|
A|---------------------------------|-----------------------------|
E|---------------------------------|-----------------------------|X2
__________________________________________________________________



(Chorus)
e|---------------------------------------------------------------|
B|---------------------------------------------------------------|
G|6-4-------4------6-4-------4------6-4-------4------6-4-------4-|
D|----6-4-6---6-4------6-4-6---6-4------6-4-6---6-4------6-4-6---|
A|---------------------------------------------------------------|
E|---------------------------------------------------------------|X2

e|---------------------------------------------------------------|
B|---------------------------------------------------------------|
G|------------4---------------------4---4---4-6-6-6-6-6----------|
D|4h6-4h6-4h6---6-4-6---4h6-4h6-4h6---6---6-------------4-5-4-5--|
A|---------------------------------------------------------------|
E|---------------------------------------------------------------|

e|---------------------------------|
B|---------------------------------|
G|-------Bend-up-while-playing.----|
D|4-5/6^-(6x12)--------------------|
A|---------------------------------|
E|---------------------------------|X2
____________________________________


(Verse)
e|---------------------------------------------------------------|
B|---------------------------------------------------------------|
G|7--7--7--2--------------7---7--7--2--2-------------------------|
D|7--7--7--2--5--5--7--7--7---7--7--2--2--5--5--7--7-------------|
A|5--5--5-----5--5--7--7--5---5--5--------5--5--7--7-------------|
E|------------3--3--5--5------------------3--3--5--5-------------|
__________________________________________________________________


(Chorus 2)
e|---------------------------------------------------------------|
B|---------------------------------------------------------------|
G|------------4---------------------4---4---4-6-6-6-6-6----------|
D|4h6-4h6-4h6---6-4-6---4h6-4h6-4h6---6---6-------------4-5-4-5--|
A|---------------------------------------------------------------|
E|---------------------------------------------------------------|

e|---------------------------------|
B|---------------------------------|
G|-------Bend-up-while-playing.----|
D|4-5/6^-(6x12)--------------------|
A|---------------------------------|
E|---------------------------------|

e|---------------------------------------------------------------|
B|---------------------------------------------------------------|
G|------------6--------------------6---6----6h8-8-8-8-8-8--------|
D|6h8-6h8-6h8---8-6-8--6h8-6h8-6h8---8---8----------------6-8-6-8|
A|---------------------------------------------------------------|
E|---------------------------------------------------------------|

e|---------------------------------------------------------------|
B|---------------------------------------------------------------|
G|---------------------------------------------------------------|
D|6-8-6-8-8-8-8-8-8-8-8-8-8-8-8-8-8------------------------------|
A|---------------------------------------------------------------|
E|---------------------------------------------------------------|

e|---------------------------------------------------------------|
B|---------------------------------------------------------------|
G|------------4---------------------4---4---4-6-6-6-6-6----------|
D|4h6-4h6-4h6---6-4-6---4h6-4h6-4h6---6---6-------------4-5-4-5--|
A|---------------------------------------------------------------|
E|---------------------------------------------------------------|

e|---------------------------------|
B|---------------------------------|
G|-------Bend-up-while-playing.----|
D|4-5/6^-(6x12)--------------------|
A|---------------------------------|
E|---------------------------------|

Rate and Let me know what you think.


| /  slide up
| \  slide down
| h  hammer-on
| p  pull-off
| ~  vibrato
| +  harmonic
| x  Mute note
Добавлено: 23.06.2012
Другие материалы по этой песне:
  • Аккорды и текст

Страница создана 23.06.2012
http://primanota.ru/anamanaguchi/helix-nebula-chords.htm
Привет, Гость.
Предлагаем пройти революционный курс по гитаре.
Подарок от PrimaNota.Ru, забирай!