PrimaNota.ru - самый крупный в мире бесплатный архив песенных текстов, аккордов, табулатур и нот


Anamanaguchi - Airbrushed - таба, видео

Регистрация Запомнить меня
Войти через:  Facebook Google Twitter Vk Yandex Mail.ru

Anamanaguchi - Airbrushed - таба, видео

Печатать
Просмотров: 142
"Airbrushed" By Anamanaguchi
Tabbed by Choco McShreddy

------------
INTRODUCTION
------------

(0:00 - 0:11)
e|------------------------------------------------------|--------------------|
B|------------------------------------------------------|--------------------|
G|-11-/-13-13-13-13-13-13-13-13-13-13-13-13-13-13-13-13-|-8--6-6-6-6--9-8-6~-| REPEAT
D|-x--/-x--x--x--x--x--x--x--x--x--x--x--x--x--x--x--x--|-x--x-x-x-x---------| TWICE
A|-9--/-11-11-11-11-11-11-11-11-11-11-11-11-11-11-11-11-|-6--4-4-4-4---------|
D|------------------------------------------------------|--------------------|

(0:11 - 0:16)
e|-----------------------------|--------------------------------|
B|-0-7-9--0-7-9--0-12-9--0-7-9-|-0-12-14--0-9-7--0-12-14--0-9-7-|
G|-----------------------------|--------------------------------|
D|-----------------------------|--------------------------------|
A|-----------------------------|--------------------------------|
D|-----------------------------|--------------------------------|

(0:16 - 0:21)
e|-----------------------------|--------------------------------|
B|-0-7-9--0-7-9--0-12-9--0-7-9-|-0-12-14--0-9-7--0-12-14--0-9---|
G|-----------------------------|--------------------------------|
D|-----------------------------|--------------------------------|
A|-----------------------------|--------------------------------|
D|-----------------------------|--------------------------------|

(0:21 - 0:26)
e|-------------------------------------------------|
B|-9-9-9-9-9-9-9-9-9-9-9-9-16-16-16-16-14-14-14-14-|
G|-------------------------------------------------|
D|-------------------------------------------------|
A|-------------------------------------------------|
D|-------------------------------------------------|

---------
VERSE ONE
---------

(0:26 - 0:35)
<8-BIT SOLO PART>

(0:35 - 0:41)
e|-----|-------------------------------|-------------------------|
B|-----|-------------------------------|-------------------------|
G|-----|-9-9-9-9-9-9-9-9-9-9-9-9-9-9-9-|-6-6-6-6-6-/-8-8-8-8-8-8-|
D|-7/9-|-9-9-9-9-9-9-9-9-9-9-9-9-9-9-9-|-x-x-x-x-x---x-x-x-x-x-x-|
A|-5/7-|-7-7-7-7-7-7-7-7-7-7-7-7-7-7-9-|-4-4-4-4-4-/-6-6-6-6-6-6-|
D|-----|-------------------------------|-------------------------|
         PM~~~~~~~~~~~~~~~~~~~~~~~~~~

(0:41 -0:46)
e|-----------------------------------------------------------------|
B|-----------------------------------------------------------------|
G|-9-9-9-9-9-9-9-9-8-8-8-8-8-8-8-8-6-6-6-6-6-6-6-6-8-8-8-8-8-8-8-8-|
D|-x-x-x-x-x-x-x-x-x-x-x-x-x-x-x-x-x-x-x-x-x-x-x-x-x-x-x-x-x-x-x-x-|
A|-7-7-7-7-7-7-7-7-6-6-6-6-6-6-6-6-4-4-4-4-4-4-4-4-6-6-6-6-6-6-6-6-|
D|-----------------------------------------------------------------|

------
CHORUS
------

(Just so you're aware, the first, I think, simply plays the power chords for both 
guitars, the cooler lead accompaniment appears int he se

(0:46 - 0:52)
e|-----------------------------------------------------------------------|
B|-----------------------------------------------------------------------|
G|-9-9-9-9-9-9-9-9-9-9-9-9-9-------------------13-13-13-13-\-11-11-11-11-|
D|-9-9-9-9-9-9-9-9-9-9-9-9-9-9-7-7-7-7-7-7-7-7-x--x--x--x--\-x--x--x--x--|
A|-7-7-7-7-7-7-7-7-7-7-7-7-7-9-7-7-7-7-7-7-7-7-11-11-11-11-\-9--9--9--9--|
D|---------------------------9-7-7-7-7-7-7-7-7---------------------------|

(0:52 - 0:56)
e|---------------------------------------------------------------------------|
B|---------------------------------------------------------------------------|
G|---------------------------------------------------------11/13-11-11-11-11-|
D|-11-11-11-11-11-11-11-11-9-9-9-9-9-9-9-9-7-7-7-7-7-7-7-7-x--x--x--x--x--x--|
A|-11-11-11-11-11-11-11-11-9-9-9-9-9-9-9-9-7-7-7-7-7-7-7-7-9-/11-9--9--9--9--|
D|-11-11-11-11-11-11-11-11-9-9-9-9-9-9-9-9-7-7-7-7-7-7-7-7-------------------|

(0:56 - 1:02)
e|-----------------------------------------------------------------------|
B|-----------------------------------------------------------------------|
G|-9-9-9-9-9-9-9-9-9-9-9-9-9-------------------13-13-13-13-\-11-11-11-11-|
D|-9-9-9-9-9-9-9-9-9-9-9-9-9-9-7-7-7-7-7-7-7-7-x--x--x--x--\-x--x--x--x--|
A|-7-7-7-7-7-7-7-7-7-7-7-7-7-9-7-7-7-7-7-7-7-7-11-11-11-11-\-9--9--9--9--|
D|---------------------------9-7-7-7-7-7-7-7-7---------------------------|

(1:02 - 1:07)
e|---------------------------|
B|---------------------------|
G|---------------------------|
D|-9-9-9-9-9-9-9-9-9-9-9-9-9-|
A|-9-9-9-9-9-9-9-9-9-9-9-9-9-|
D|-9-9-9-9-9-9-9-9-9-9-9-9-9-|

------
BRIDGE
------

(1:07 - 1:17)
e|-------------------------------------------------------------|
B|-------------------------------------------------------------|
G|-9-9-9-9-9-9-9-9-9-9-9-9-9-----------------------------------| REPEAT
D|-9-9-9-9-9-9-9-9-9-9-9-9-9-9-7-7-7-7-7-7-7-9-9-9-9-9-9-9-9-9-| TWICE
A|-7-7-7-7-7-7-7-7-7-7-7-7-7-9-7-7-7-7-7-7-7-9-9-9-9-9-9-9-9-9-|
D|---------------------------9-7-7-7-7-7-7-7-9-9-9-9-9-9-9-9-9-|

(1:17 - 1:28)
e|------------------------------------------------------|--------------------|
B|------------------------------------------------------|--------------------|
G|-11-/-13-13-13-13-13-13-13-13-13-13-13-13-13-13-13-13-|-8--6-6-6-6--9-8-6~-| REPEAT
D|-x--/-x--x--x--x--x--x--x--x--x--x--x--x--x--x--x--x--|-x--x-x-x-x---------| TWICE
A|-9--/-11-11-11-11-11-11-11-11-11-11-11-11-11-11-11-11-|-6--4-4-4-4---------|
D|------------------------------------------------------|--------------------|

(1:28 - 1:33)
e|-----------------------------|--------------------------------|
B|-0-7-9--0-7-9--0-12-9--0-7-9-|-0-12-14--0-9-7--0-12-14--0-9-7-|
G|-----------------------------|--------------------------------|
D|-----------------------------|--------------------------------|
A|-----------------------------|--------------------------------|
D|-----------------------------|--------------------------------|

(1:33 - 1:38)
e|-------------------14-17---9-12-|----------------------------|
B|-0-9-7--0-12-14--0-------0------|-0-12-14--0-9-7--9-9-7-9-7--|
G|--------------------------------|----------------------------|
D|--------------------------------|----------------------------|
A|--------------------------------|----------------------------|
D|--------------------------------|----------------------------|

---------
VERSE TWO
---------

(1:38 - 1:43)
<8-BIT SOLO PART>

(1:43 - 1:49)
e|-------------------------------------7--------|
B|-17-12-9------9--9-7-9--9-7-9--9-7-9---9-7-9--|
G|---------11-9---------------------------------|
D|----------------------------------------------|
A|----------------------------------------------|
D|----------------------------------------------|

(1:49 - 1:53)


(1:53 - 1:56)
e|------------------------------------------------------------------|
B|------------------------------------------------------------------|
G|-6-/-8-/-9-9-9-9-/-13-13-13-13-\-11-11-11-11-\-8-8-8-8-/-9-9-9-9--|
D|-x---x---x-x-x-x---x--x--x--x----x--x--x--x----x-x-x-x---x-x-x-x--|
A|-4-/-6-/-7-7-7-7-/-11-11-11-11---9--9--9--9--\-6-6-6-6-/-7-7-7-7--|
D|------------------------------------------------------------------|

(1:56 - 2:08)
e|-------------------------------------|---------------------------------|
B|-------------------------------------|---------------------------------|
G|-13-/-12-/-14-\-11-/-13-\-11-\-9~~~~-|-(9)-(9)-(9)-(9)-(9)-(9)-(9)-(9)-|
D|-x----x----x----x--------------------|---------------------------------|
A|-11-/-14-/-16-\-9--------------------|---------------------------------|
D|-------------------------------------|---------------------------------|

(2:08 - 2:14)
e|-------------------------------|-------------------------|
B|-------------------------------|-------------------------|
G|-----9-------9-------9-------9-|-6-6-6-6-6-/-8-8-8-8-8-8-|
D|-----9-------9-------9-------9-|-x-x-x-x-x---x-x-x-x-x-x-|
A|-7-7-7-7-7-7-7-7-7-7-7-7-7-7-7-|-4-4-4-4-4-/-6-6-6-6-6-6-|
D|-------------------------------|-------------------------|
   PM~~~~~~~~~~~~~~~~~~~~~~~~~~

(2:14 -2:19)
e|-----------------------------------------------------------------|
B|-----------------------------------------------------------------|
G|-9-9-9-9-9-9-9-9-8-8-8-8-8-8-8-8-6-6-6-6-6-6-6-6-8-8-8-8-8-8-8-8-|
D|-x-x-x-x-x-x-x-x-x-x-x-x-x-x-x-x-x-x-x-x-x-x-x-x-x-x-x-x-x-x-x-x-|
A|-7-7-7-7-7-7-7-7-6-6-6-6-6-6-6-6-4-4-4-4-4-4-4-4-6-6-6-6-6-6-6-6-|
D|-----------------------------------------------------------------|

------
CHORUS
------

(2:19 - 2:24)
e|-7h9------------------------------------------------------|
B|-----5-7-9-0-7-9------------------------------------------|
G|-----------------9-0-8-0-9p8p0----------13-13-13-11-11-11-|
D|-------------------------------9h11p9---x--x--x--x--x--x--|
A|--------------------------------------9-11-11-11-9--9--9--|
D|----------------------------------------------------------|

(2:24 - 2:29
e|-7h9-----------------------------------------------------|
B|-----5-7-9-0-7-9-----------------------------------------|
G|-----------------9-0-8-0-9p8p0----------9-/-11/-13-\-11~-|
D|-------------------------------9h11p9---x---x---x----x---|
A|--------------------------------------9-7-/-9-/-11-\-9~~-|
D|---------------------------------------------------------|

(2:29 - 2:34)
e|-7h9------------------------------------------------------|
B|-----5-7-9-0-7-9------------------------------------------|
G|-----------------9-0-8-0-9p8p0----------13-13-13-11-11-11-|
D|-------------------------------9h11p9---x--x--x--x--x--x--|
A|--------------------------------------9-11-11-11-9--9--9--|
D|----------------------------------------------------------|

(2:34 - 2:39)
e|-------------------------------------------|
B|-------------------------------------------|
G|-------------------------------------------|
D|-9--9--9--9--8--8--8--8--6--6--6--6--8-\-0-|
A|-x--x--x--x--x---x---x---x--x--x--x--x---0-|
D|-7--7--7--7--6--6--6--6--4--4--4--4--6-\-0-|

------
BRIDGE
------

(2:39 - 2:44)
e|-------------------------------------------------------------|
B|-------------------------------------------------------------|
G|-9-9-9-9-9-9-9-9-9-9-9-9-9-----------------------------------|
D|-9-9-9-9-9-9-9-9-9-9-9-9-9-9-7-7-7-7-7-7-7-9-9-9-9-9-9-9-9-9-|
A|-7-7-7-7-7-7-7-7-7-7-7-7-7-9-7-7-7-7-7-7-7-9-9-9-9-9-9-9-9-9-|
D|---------------------------9-7-7-7-7-7-7-7-9-9-9-9-9-9-9-9-9-|

(2:44 - 2:58)
e|---------------------------|--------------------------------------|
B|-16------------------------|----/12-14----------------------------|
G|----13-16-13-9p8-8-8-9-6-4-|-/6--------13-14p13\11-9\6/11/13-9----|
D|---------------------------|-----------------------------------10-|
A|---------------------------|--------------------------------------|
D|---------------------------|--------------------------------------|

(2:58 - 3:00)
e|---------------------|
B|-------12-12---------|
G|-11-13-------9/13-11-|
D|---------------------|
A|---------------------|
D|---------------------|

(3:00 - 3:08)
e|-----------------------------------------------|-------------------------------------|
B|-----------------------------------------------|-------------------------------------|
G|-11h13-13-13-13-1313131313-11-9-99-9-9-9-9-8-8-|-9p8-9h11-9p8-9h11-9p8-9h11-9p8-9h11-|
D|-----------------------------------------------|-------------------------------------|
A|-----------------------------------------------|-------------------------------------|
D|-----------------------------------------------|-------------------------------------|

(3:08 - 3:10)
e|-------------------------------------|
B|-------------------------------------|
G|-99/1111/1313/1414/1616/1818/2020/21-|
D|-------------------------------------|
A|-------------------------------------|
D|-------------------------------------|

(3:10 - 3:25) - THIS BIT PLAYS UNDERNEATH THE MASH OF NOISE, Listen for it.
e|------------------------|-------------------------------|------------------------|
B|------------------------|---------------4-4-5-----------|------------------------|
G|---------4-4-6----------|---------4-4-6-----------------|---------4-4-6----------|
D|-2-2-4-6-------6-6-4-6~-|-2-2-4-6-------------6~-4-6-4~-|-2-2-4-6-------6-6-4-2~-|
A|------------------------|-------------------------------|------------------------|
D|------------------------|-------------------------------|------------------------|

(3:10 - 3:32)
e|---------------------------------------------------|
B|---------------------------------------------------|
G|---------------------------------------------------|
D|-7-7-7-7-7-7-7-7-7-7-7-7-8-8-8-8-9-9-9-9-9-9-9-9-9-|
A|-x-x-x-x-x-x-x-x-x-x-x-x-x-x-x-x-x-x-x-x-x-x-x-x-x-|
D|-x-x-x-x-x-x-x-x-x-x-x-x-x-x-x-x-x-x-x-x-x-x-x-x-x-|

RHYTHM REPEATS MAIN POWERCHORD RIFF FROM CHORUS, LEAD PLAYS OVER:

(3:32 - 3:41
e|--------------|-------------------------------------------------|
B|-12/----------|-16-------------------------------12-12----------|
G|--------------|----13-16-13-9p8-8-8-9-6-11h13-13-------9/13\11~-|
D|----\6-7p6-4~-|-------------------------------------------------|
A|--------------|-------------------------------------------------|
D|--------------|-------------------------------------------------|

(3:41 - 4:01)
e|------------------------------------|--------------------------|
B|------------------------------------|--------------------------|
G|-9~-\-4-6---------/9-\6-/11-/13-/16-|-13-13-11-13-11-\9--------|
D|----------6-7p6-4-------------------|-------------------9------|
A|------------------------------------|---------------------11-7-|
D|------------------------------------|--------------------------|

RHYTHM POWERCHORDS ARE SIMPLE ENOUGH TO FIGURE OUT BY EAR.
PLEASE ENJOY.
Добавлено: 02.06.2012
Другие материалы по этой песне:
  • Аккорды и текст

Страница создана 02.06.2012
http://primanota.ru/anamanaguchi/airbrushed-chords.htm
Привет, Гость.
Предлагаем пройти революционный курс по гитаре.
Подарок от PrimaNota.Ru, забирай!