PrimaNota.ru - самый крупный в мире бесплатный архив песенных текстов, аккордов, табулатур и нот


Analogs - Trucizna (album) - таба, видео

Регистрация Запомнить меня
Войти через:  Facebook Google Twitter Vk Yandex Mail.ru

Analogs - Trucizna (album) - таба, видео

Печатать
Просмотров: 195
Уроки эстрадного вокала в Санкт-Петербурге
Analogs - Trucizna
01.Trucizna
Zwrotka
--------------------|
--------------------|
---7-5-9-7----7-5-7-|
-5-7-5-9-7--5-7-5-7-|
-5-5-3-7-5--5-5-3-5-|
-3----------3-------|
Refren
------------------------------------|
------------------------------------|
-9-5---7--9-5------9-5---7--9-5-7-7-|
-9-5-5-7--9-5-5-5--9-5-5-7--9-5-7-7-|
-7-3-5-5--7-3-5-5--7-3-5-5--7-3-5-5-|
-----3--------3-3------3------------|

02.Grzeczny chłopiec
Intro
-----------------|
-----------------|
-----7------8-9--|
-7-7-7-7----8-9--|
-7-7-5-7----6-7--|
-5-5---5-x3------|

Zwrotka   Przejście
---------|---------|
---------|---------|
-----7-9-|-6---7-9-|
-7-7-7-9-|-6-4-7-9-|
-7-7-5-7-|-4-4-5-7-|
-5-5-----|---2-----|
Refren
------------|
---------10-|
---7-9---9 -|
-7-7-9-7-7 -|
-7-5-7-7----|
-5-----5----|

03.Hipisi w martensach
Zwrotka
------------------|
------------------|
-----5-7----9---7-|
-5-7-5-7--5-9-7-7-|
-5-7-3-5--5-7-7-5-|
-3-5------3---5---|
Refren
------------------|
------------------|
-----9--------7---|
-9-9-9-9--7-7-7-7-|
-9-9-7-9--7-7-5-7-|
-7-7---7--5-5---5-|
Przejście
-----------|
-----------|
-----------|
-9-7-5-4-7-|
-9-7-5-4-7-|
-7-5-3-2-5-|

04.Nie namawiaj nas
Zwrotka
--------------|
--------------|
-7--9-10--5-7-|
-7--9-10--5-7-|
-5--7-8 --3-5-|
--------------|
Refren
-----------------|
---9-10-12---9---|
-7-9-10-12-7-9-7-|
-7-7-8 -10-7-7-7-|
-5---------5---5-|
-----------------|

05.Byłem taki sam
Zwrotka
--------------|
--------------|
-7--7--7------|
-7--7--7--9-7-|
-5--5--5--9-7-|
----------7-5-|
Refren
----------------------------|
----------------------------|
-----7-7----------------7-7-|
-5-7-7-7----5-7-5-7-5-7-7-7-|
-5-7-5-5----5-7-5-7-5-7-5-5-|
-3-5-----x2-3-5-3-5-3-5-----|

06.Teraz chciałbym wąchać klej
Zwrotka  Przejście
-----    ---------|
-----    ---------|
-----    ---------|
-7-5-    -7-5-3-2-|
-7-5-    -7-5-3-2-|
-5-3-    -5-3-1-0-|

07.Nie zatrzymasz się
Zwrotka      Refren
---------    ----------|
---------    ----------|
-7-7-5---    ---7-9-12-|
-7-7-5-5-    -9-7-9-12-|
-5-5-3-5-    -9-5-7-10-|
-------3-    -7--------|
Przejście
---------|
---------|
-7-5-----|
-7-5-5-7-|
-5-3-5-7-|
-----3-5-|

08.Wspaniały świat
---------   ---------|
---------   ---------|
---4-2---   ---------|
-2-4-2-5-   -9-7-5-2-|
-2-2-0-5-   -9-7-5-2-|
-0-----3-   -7-5-3-0-|

09. Gdzie się na*****
Zwrotka
--------------------|
--------------------|
-7-4-5-7----7-4-2-2-|
-7-4-5-7----7-4-2-2-|
-5-2-3-5-x3-5-2-0-0-|
--------------------|
Refren
------------------|
------------------|
-7-4-2----7-4-2-2-|
-7-4-2-5--7-4-2-2-|
-5-2-0-5--5-2-0-0-|
-------3----------|
Przejście chyba tak
---------|
---------|
-9-5---7-|
-9-5-7-7-|
-7-3-7-5-|
-----5---|

10.Nowe sztandary
Zwrotka
-----------------|
-----------------|
---------------7-|
-5-7-5-7-8-5-7-7-|
-5-7-5-7-8-5-7-5-|
-3-5-3-5-6-3-5---|
Refren       przejście
---------   ---------|
---------   ---------|
-5---7---   -----5-7-|
-5-5-7-5-   -5-5-5-7-|
-3-5-5-5-   -5-5-3-5-|
---3---3-   -3-3-----|

11.Oszukani
Zwrotka
------------------|
------------------|
-7-----5--7-------|
-7-3-5-5--7-3-5-7-|
-5-3-5-3--5-3-5-7-|
---1-3------1-3-5-|
Refren
---------|
---------|
-5-7-2-2-|
-5-7-2-2-|
-3-5-0-0-|
---------|

12.Na ulicach miast
Zwrotka
---------|
---------|
-7-------|
-7-7-9-7-|
-5-7-9-7-|
---5-7-5-|
Przed refrenem
-----------------|
-----------------|
-----7-9-----7-7-|
-5-7-7-9-5-7-7-7-|
-5-7-5-7-5-7-5-5-|
-3-5-----3-5-----|
Refren
---------|
---------|
-----7-7-|
-5-7-7-7-|
-5-7-5-5-|
-3-5-----|

13.Sznur
Zwrotka
--------------|
--------------|
--------7-9---|
-7-2-7--7-9-7-|
-7-2-7--5-7-7-|
-5-0-5------5-|
Refren    Końcówka
--------- -------|
--------- -------|
-7-9---9- -9-8-7-|
-7-9-7-9- -9-8-7-|
-5-7-7-7- -7-6-5-|
-----5--- -------|

14.Dziewczyna z mercedesem
Intro/Przejście
---------|
---------|
-5-5-3---|
-5-5-3-5-|
-3-3-1-5-|
-------3-|
Refren
-----------------|
-----------------|
-2---2---2-------|
-2-3-2-3-2-3-5-5-|
-0-3-0-3-0-3-5-5-|
---1---1---1-3-3-|
Zwrotka
---------|
---------|
-5-5---5-|
-5-5-5-5-|
-3-3-5-3-|
-----3---|
Solówka podczas przejścia
------------------------------------------------|
------------------------------------------------|
------------------------------------------------|
-----5-6-5--------5-6-5-------------------------|
-3-6-------6--3-6-------6-1--1-3-1------1---1---|
------------------------------------3-3---3---3-|

15.Bonus
---------------------------------------|
---------------------------------------|
-5-5---5--5-5---------5-5---5--5---5-5-|
-5-5-3-5--5-5-5-5-----5-5-3-5--5-5-5-5-|
-3-3-3-3--3-3-5-5-----3-3-3-3--3-5-3-3-|
-----1--------3-3---------1------3-----|
To akurat jest grane na akordach zwykłych, czyli
C C F C, C C G G. C C F C, C G C C
-----1--------3-3---------1------3------|
-1-1-1-1--1-1-3-3-----1-1-1-1--1-3-1-1--|
-0-0-2-0--0-0-0-0-----0-0-2-0--0-0-0-0--|
-2-2-3-2--2-2-0-0-----2-2-3-2--2-0-2-2--|
-3-3-3-3--3-3-2-2-----3-3-3-3--3-2-3-3--|
-----1--------3-3---------1------3------|
Добавлено: 29.07.2012
Другие материалы по этой песне:
  • Аккорды и текст

Страница создана 29.07.2012
http://primanota.ru/analogs/trucizna-album-chords.htm
Привет, Гость.
Предлагаем пройти революционный курс по гитаре.
Подарок от PrimaNota.Ru, забирай!