PrimaNota.ru - самый крупный в мире бесплатный архив песенных текстов, аккордов, табулатур и нот


Analog Rebellion - Voice Boxes And Pretty Teeth - таба, видео

Регистрация Запомнить меня
Войти через:  Facebook Google Twitter Vk Yandex Mail.ru

Analog Rebellion - Voice Boxes And Pretty Teeth - таба, видео

Печатать
Просмотров: 162
Уроки эстрадного вокала в Санкт-Петербурге
-----------------------------------------------  
Voice Boxes and Pretty Teeth - Analog Rebellion
-----------------------------------------------
Tabbed by: asolidrighthook
E-mail: asolidrighthook@gmail.com

Tuning: Standard
Capo: 4th fret

  I drew a picture in the shower door, but you didn't see it.

e|-----------------------------------------------------------------------------------|
B|-----------------------------------------------------------------------------------|
G|-----------------------------------------------------------------------------------|
D|-2-2-2-2-----------------------------------2-2-2-2---------------------------------|
A|-3-3-3-3-2-2-2-2-2-2-2-2-2-2-2-2-2-2-2-2-2-3-3-3-3-2-2-2-2-2-2-2-2-2-2-2-2-2-2-2---|
E|---------3-3-3-3-3-3-3-3-3-3-3-3-3-3-3-3-3-----------------------------------------|

  I left a note for you in the window, but you didn't read it.

e|-----------------------------------------------------------------------------------|
B|-----------------------------------------------------------------------------------|
G|-----------------------------------------------------------------------------------|
D|-2-2-2-2-----------------------------------2-2-2-2---------------------------------|
A|-3-3-3-3-2-2-2-2-2-2-2-2-2-2-2-2-2-2-2-2-2-3-3-3-3-2-2-2-2-2-2-2-2-2-2-2-2-2-2-2---|
E|---------3-3-3-3-3-3-3-3-3-3-3-3-3-3-3-3-3-----------------------------------------|

  I made a song for you with frets and strings,

e|-----------------------------------------------------------------------------------|
B|-----------------------------------------------------------------------------------|
G|-----------------------------------------------------------------------------------|
D|-2-2-2-2-------------2-2-2-2-2-2-2-2-2-2-2-2-2-2-2-2-2-2-2-------------------------|
A|-3-3-3-3-2-2-2-2-2-2-------3-3-3-3-3-3-3-3-3-3-3-3-3-3-3-3 ------------------------|
E|---------3-3-3-3-3-3---------------------------------------------------------------|

  trumpets, drums, and vibes and things,

e|-----------------------------------------------------------------------------------|
B|-----------------------------------------------------------------------------------|
G|-----------------------------------------------------------------------------------|
D|-5-5-5-4-4-4-2-2-2-2-2-2-2-2-2-2-2-2-2-2-2-2-2-------------------------------------|
A|-7-7-7-5-5-5-------3-3-3-3-3-3-3-3-3-3-3-3-3-3-------------------------------------|
E|-----------------------------------------------------------------------------------|

  but you didn't hear it. You didn't hear it.

e|-----------------------------------------------------------------------------------|
B|-----------------------------------------------------------------------------------|
G|-----------------------------------------------------------------------------------|
D|-2-2-2-2-----------------------------------2-2-2-2---------------------------------|
A|-3-3-3-3-2-2-2-2-2-2-2-2-2-2-2-2-2-2-2-2-2-3-3-3-3-2-2-2-2-2-2-2-2-2-2-2-2-2-2-2---|
E|---------3-3-3-3-3-3-3-3-3-3-3-3-3-3-3-3-3-----------------------------------------|

  I imagine you can do without,

e|-----------------------------------------------------------------------------------|
B|-----------------------------------------------------------------------------------|
G|-----------------------------------------------------------------------------------|  
D|---------------2-2-2-2-2-2-2-2-2-2-2-2-2-2-2-2-2-2---------------------------------|
A|-2-2-2-2-2-2-2---------3-3-3-3-3-3-3-3-3-3-3-3-3-3---------------------------------|
E|-----------------------------------------------------------------------------------|

  all the things i leave about. 

e|-----------------------------------------------------------------------------------|
B|-----------------------------------------------------------------------------------|
G|-----------------------------------------------------------------------------------|
D|-5-5-5-4-4-4-2-2-2-2-2-2-2-2-2-2-2-2-2-2-2-2-2-------------------------------------|
A|-7-7-7-5-5-5-------3-3-3-3-3-3-3-3-3-3-3-3-3-3-------------------------------------|
E|-----------------------------------------------------------------------------------|

Like letters in your inbox, and casual small talk.

e|-----------------------------------------------------------------------------------|
B|-----------------------------------------------------------------------------------|
G|-----------------------------------------------------------------------------------|
D|-2-2-2-2-----------------------------------2-2-2-2---------------------------------|
A|-3-3-3-3-2-2-2-2-2-2-2-2-2-2-2-2-2-2-2-2-2-3-3-3-3-2-2-2-2-2-2-2-2-2-2-2-2-2-2-2---|
E|---------3-3-3-3-3-3-3-3-3-3-3-3-3-3-3-3-3-----------------------------------------|

And compliments on little things, like voice boxes and pretty teeth,

e|-----------------------------------------------------------------------------------|
B|-----------------------------------------------------------------------------------|
G|-----------------------------------------------------------------------------------|
D|-2-2-2-2-----------------------------------2-2-2-2---------------------------------|
A|-3-3-3-3-2-2-2-2-2-2-2-2-2-2-2-2-2-2-2-2-2-3-3-3-3-2-2-2-2-2-2-2-2-2-2-2-2-2-2-2---|
E|---------3-3-3-3-3-3-3-3-3-3-3-3-3-3-3-3-3-----------------------------------------|

taste in movies and candy, family, scars, and your mothers rings.

e|-----------------------------------------------------------------------------------|
B|-----------------------------------------------------------------------------------|
G|-----------------------------------------------------------------------------------|
D|-2-2-2-2-----------------------------------2-2-2-2---------------------------------|
A|-3-3-3-3-2-2-2-2-2-2-2-2-2-2-2-2-2-2-2-2-2-3-3-3-3-2-2-2-2-2-2-2-2-2-2-2-2-2-2-2---|
E|---------3-3-3-3-3-3-3-3-3-3-3-3-3-3-3-3-3-----------------------------------------|

(silent) You can do without those things.

  You can do without those things (x6) 
e|----------------------------------------------------------------------|
B|----------------------------------------------------------------------|
G|----------------------------------------------------------------------|
D|-2-2-2-2-2-2-2-2------------------------------------------------------|  (x6)
A|-3-3-3-3-3-3-3-3-2-2-2-2-2-2-2-2-2-2-2-2-2----------------------------|
E|-----------------3-3-3-3-3-3-3-3-3-3-3-3-3----------------------------|
Добавлено: 09.03.2016
Другие материалы по этой песне:
  • Аккорды и текст

Страница создана 09.03.2016
http://primanota.ru/analog-rebellion/voice-boxes-and-pretty-teeth-chords.htm
Привет, Гость.
Предлагаем пройти революционный курс по гитаре.
Подарок от PrimaNota.Ru, забирай!