PrimaNota.ru - самый крупный в мире бесплатный архив песенных текстов, аккордов, табулатур и нот


Anal Cunt - I Went Back In Time And Voted For Hitler - бас-таба, видео

Регистрация Запомнить меня
Войти через:  Facebook Google Twitter Vk Yandex Mail.ru

Anal Cunt - I Went Back In Time And Voted For Hitler - бас-таба, видео

Печатать
Просмотров: 67
Band: Anal Cunt (AxCx)
Song: "I Went Back In Time And Voted For Hitler"
Album: Split E.P. [Split] [EP]
Tabbed by: TONY_the_TYRANT
E-mail: apgsavino@gmail.com
Tuning: DGCF


Intro/Fill
F|---------------------------------------------------------------------------|
C|---------------------------------------------------------------------------|
G|-3-3-----3-3---------------------------------------------------------------|
D|-----1-1-----1-1-----------------------------------------------------------|

Verse
F|---------------------------------------------------------------------------|
C|---------------------------------------------------------------------------|
G|---------------------------------------------------------------------------|
D|-000000000000--------------------------------------------------------------|
(Just improvise for this one. It's almost inaudible because of the drum blasts.)

Chorus
F|---------------------------------------------------------------------------|
C|---------------------------------------------------------------------------|
G|---------------------------------------------------------------------------|
D|-1-1-3-3-4-0-5-------------------------------------------------------------|

Breakdown
F|---------------------------------------------------------------------------|
C|---------------------------------------------------------------------------|
G|---------------------------------------------------------------------------|
D|-1-1-3-3-3-4-4-5-----------------------------------------------------------|


Intro (x1)
Verse (x1)
Chorus (x4)
Verse (x1)
Chorus (x4)
Fill (x1)
Breakdown (x4)
Fill (x4)


Note - for the last repetition of the last time you play both the chorus and breakdown 
riffs, skip the last note of the riff and jump straight into the fill.


Enjoy! R.I.P Seth...


| /  slide up
| \  slide down
| h  hammer-on
| p  pull-off
| ~  vibrato
| +  harmonic
| x  Mute note
=============================================================================
Добавлено: 30.09.2013
Другие материалы по этой песне:
  • Аккорды и текст

Страница создана 30.09.2013
http://primanota.ru/anal-cunt/i-went-back-in-time-and-voted-for-hitler-chords.htm
Привет, Гость.
Предлагаем пройти революционный курс по гитаре.
Подарок от PrimaNota.Ru, забирай!