PrimaNota.ru - самый крупный в мире бесплатный архив песенных текстов, аккордов, табулатур и нот


Anal Cunt - Brain Dead - таба, видео

Регистрация Запомнить меня
Войти через:  Facebook Google Twitter Vk Yandex Mail.ru

Anal Cunt - Brain Dead - таба, видео

Печатать
Просмотров: 147
Band:  Anal Cunt
Album: Top 40 Hits
Song:  Brain Dead

Version 1.0 - 21.03.2006

Transcribed By: CotyXD
Email:cotyxd@yahoo.com


.  - palm mute           /  - slide up to
\  - slide down to       ~  - vibrato
h  - hammer on           b  - Bend
p  - pull off            Suffixes for bend
t  - tap                 f  - full bend    h - half bend
ph - pinched harmonic    q  - quarter bend t - tap bend
*  - see comment         ^  - Hold bend    r release bend
x  - Stuccatto           ~  - vibrato bend
,  - slight palm mute    () - ghost note, sustained note
"  - tremolo note        <> - Trill

Tuning D G C F A D

Guitar 1:
Riff A1 x7
D|------------------------------------------------------------------------|
A|------------------------------------------------------------------------|
F|------------------------------------------------------------------------|
C|-----6-----6-----------6-----6-----------5-----5-----------5-----5------|
G|---6-----7---9-7-----6-----7---9-7-----5-----7---8-7-----5-----7---8-7--|
D|-4-----------------4-----------------3-----------------3----------------|

Guitar 2:
Riff B x1 (0:10)
D|------------------------------------------------------------------------|
A|------------------------------------------------------------------------|
F|------------------------------------------------------------------------|
C|------------------------------------------------------------------------|
G|-6-6-6-------------6-6-6-------------5-5-5-------------5-5-5------------|
D|-4-4-4-------------4-4-4-------------3-3-3-------------3-3-3------------|

Guitar 2:
Riff C x2 (0:20)
D|------------------------------------------------------------------------|
A|------------------------------------------------------------------------|
F|------------------------------------------------------------------------|
C|------------------------------------------------------------------------|
G|-6-6-6-6-6-6-6-44--6-6-6-6-6-6-6-33--5-5-5-5-5-5-5-33--5-5-5-5-5-5-5-33-|
D|-4-4-4-4-4-4-4-22--4-4-4-4-4-4-4-11--3-3-3-3-3-3-3-11--3-3-3-3-3-3-3-11-|

Guitar 2:
Riff B x1 (0:37)
Riff C x2 (0:46)
Riff B x1 (1:04)

Guitar 1:
Riff A x2 (1:13)

Guitar 2:
Pick slide, then
Riff D x2 (1:13)
D|------------------------------------------------------------------------|
A|------------------------------------------------------------------------|
F|------------------------------------------------------------------------|
C|-6-6-6-6-6-6-6-44--6-6-6-6-6-6-6-33--5-5-5-5-5-5-5-33--5-5-5-5-5-5-5-33-|
G|-6-6-6-6-6-6-6-44--6-6-6-6-6-6-6-33--5-5-5-5-5-5-5-33--5-5-5-5-5-5-5-33-|
D|-4-4-4-4-4-4-4-22--4-4-4-4-4-4-4-11--3-3-3-3-3-3-3-11--3-3-3-3-3-3-3-11-|

End with (1:30)
D|--------|
A|--------|
F|--------|
C|--------|
G|-6-6-6--|
D|-4-4-4--|
Добавлено: 04.06.2012
Другие материалы по этой песне:
  • Аккорды и текст

Страница создана 04.06.2012
http://primanota.ru/anal-cunt/brain-dead-chords.htm
Привет, Гость.
Предлагаем пройти революционный курс по гитаре.
Подарок от PrimaNota.Ru, забирай!