PrimaNota.ru - самый крупный в мире бесплатный архив песенных текстов, аккордов, табулатур и нот


Anais Mitchell - Your Fonder Heart - таба, видео

Регистрация Запомнить меня
Войти через:  Facebook Google Twitter Vk Yandex Mail.ru

Anais Mitchell - Your Fonder Heart - таба, видео

Печатать
Просмотров: 135
-------------------------------------------------------------------------------
                 Your Fonder Heart – Anais Mitchell
-------------------------------------------------------------------------------
Tabbed by: Sam Bevet
Email: skittlesdagod13@yahoo.com

I think this is more or less correct, although her picking pattern may differ, but this 
out the main notes and chord changes. You can add some Travis-picking around the basic 
to fill out the sound as well.

Tuning: Standard, Capo 1st Fret


Intro:

  G          C         G           F          G        Cadd9                   F
e|3---5--3---0---------3----5--3---1----------3----5--3-----------------0------1-|
B|--0----------1---1-----0------------1---1------0-------3------3--3------3-1--1-|
G|---------------0----------------------2---------------------0-------0--------2-|
D|----------------------------------------------------------2--------------------|
A|-----------3-------------------------------------------3---------3-------------|
E|3--------------------3-----------1-----------3--------------------------------1|

Verse:
   G                  Am                 C                  F
e|-3--------3--------|-0--------0-------|-0--------0-------|-1--------1---------|
B|-----0h1-------0h1-|-----0h1------0h1-|-----0h1------0h1-|---1---1-----1---1--|
G|---0---------0-----|---2--------2-----|---0--------0-----|-----2----------2---|
D|-----0---------0---|-----2--------2---|-----2--------2---|--------------------|
A|-------------------|-0--------0-------|-3--------3-------|--------------------|
E|-3---------3-------|------------------|------------------|-1---------1--------|

   G                  Am                 C        Am         G
e|-3--------3--------|-0--------0-------|-0--------0-------|--------------------|
B|-----0h1-------0h1-|-----0h1------0h1-|-----0h1------0h1-|------0--------0----|
G|---0---------0-----|---2--------2-----|---0--------2-----|-----0-------0------|
D|-----0---------0---|-----2--------2---|-----2--------2---|---0-------0--------|
A|-------------------|-0--------0-------|-3--------0-------|--------------------|
E|-3---------3-------|------------------|------------------|-3-------3----------|


G                       Am
Come out, come on, come outside
C                            F
Don't you hide your handsome face from me
                  G
I want to see you half-lit in the half-light
Am                               C
Laughing with the whites of your dark eyes
Am
Shining
G
Darkly

Chorus:
  C                   Am                    F                  F
e|-0--------0-------|-0---------0---------|-1--------1--------|-------1--------1-|
B|-----0h1------0h1-|------0h1--------0h1-|---1---1-----1---1-|-----1--------1---|
G|---0--------0-----|----2---------2------|-2---2----2----2---|---2--------2-----|
D|-----2--------2---|------2----------2---|-------------------|-3--------3-------|
A|-3--------3-------|-0---------0---------|-------------------|------------------|
E|------------------|---------------------|-------------------|------------------|

C                   Am
Way over yonder I'm waiting and wondering
F           F
Wither your fonder heart lies


Verse 2:

G                         Am
Come out, the streets are breathing
C                       F
Heaving green to red to green
G                           Am
Come with your nicotine and wine
            C
Tambourine keeping time
                        F
Come and find me in the evening


Chorus:
C                    Am
Way over yonder I'm waiting and wondering
F             F
Wither your fonder heart lies
C                   Am
Way over yonder I'm waiting and wondering
F                         G
Whether your fonder heart lies


Bridge:
  C                   Am                    Am/G                F
e|-0--------0-------|-0---------0---------|-0---------0--------|-------1------1-|
B|-----0h1------0h1-|------0h1--------0h1-|------0h1-------0h1-|-----1-------1--|
G|---0--------0-----|----2---------2------|---2---------2------|---2-------2----|
D|-----2--------2---|------2----------2---|------2---------2---|-3-------3------|
A|-3--------3-------|-0---------0---------|--------------------|----------------|
E|------------------|---------------------|-3---------3--------|----------------|


Verse 3:

G                Am
Come out, come inspired
   C                 F
You will not come to harm
G                          Am
if I cannot take you for a liar or a lover
C                              F
I'll take you for my brother in arms

Chorus:
C                   Am
Way over yonder I'm waiting and wondering
F             F
Wither your fonder heart lies
C                   Am
Way over yonder I'm waiting and wondering
F                       G
Whether your fonder heart lies


| /  slide up
| \  slide down
| h  hammer-on
| p  pull-off
| ~  vibrato
| +  harmonic
| x  Mute note
===============================================================================
Добавлено: 23.04.2012
Другие материалы по этой песне:
  • Аккорды и текст

Страница создана 23.04.2012
http://primanota.ru/anais-mitchell/your-fonder-heart-chords.htm
Привет, Гость.
Предлагаем пройти революционный курс по гитаре.
Подарок от PrimaNota.Ru, забирай!