PrimaNota.ru - самый крупный в мире бесплатный архив песенных текстов, аккордов, табулатур и нот


Anais Mitchell - Namesake - аккорды и текст, видео

Регистрация Запомнить меня
Войти через:  Facebook Google Twitter Vk Yandex Mail.ru

Anais Mitchell - Namesake - аккорды и текст, видео

Печатать
Просмотров: 145
Namesake
Anais Mitchell
-------------------------------------------------------------------------------
                             Namesake – Anais Mitchell
-------------------------------------------------------------------------------
Tabbed by: Sam Bevet
Email: skittlesdagod13@yahoo.com

Tuning: Standard

The intro is very sparse, but I've added some stuff for a single guitar to play it. 
I haven't figured out the finger-style for the chords during the song, but just try a few 
and find one you like. All chords are bars.

Intro:

e|-------------------------|----------------------------|
B|-------------------------|----------------------------|
G|-------------------------|-----0----------------------| Repeat Several
D|-0----3--0---------------|--1-----1-----1---1---1-----| Times
A|---1---------1---1---1---|--3--------3----3---3---3---|
E|-3---------3---3---3---3-|----------------------------|

Gm                        Cm
I've worn out all of your records
     Gm                   Cm
I've torn out page after page
       Gm                         Cm
I have lain with the shadows you threw
                         Gm
when you danced with the bright colored
               Cm
lights of the stage
Gm                   Eb
hey and aren't you grateful?
Gm                 Eb
say and ain't you got fun?
Gm                 Eb
being so good at what you do
         Gm                     Eb
doing it right in front of everyone


e|---------------------|
B|---------------------|
G|---------------------| Play this riff with one note for each syllable of
D|---------------------| “everybody”.
A|--------------8------|
E|--6--8--8/10---------|

          F     Eb
Everybody knows you
Gm        F    Eb
I want to know you!

how you roll like the rolling waters
you rise like the bright morning stars
you go fast like the freight train going so fast
and I don't even know who you are
but I would not disappoint you
if you let me kiss your mouth
if you let me get to the bottom of you
if you let me find you out

everybody knows you
nobody knows you!

everybody knows you
I want to know you!

o, but I, in the name of my namesake
am a beautiful fly on the wall of
your four-chambered heart-break
a spy in the house of your love


| /  slide up
| \  slide down
| B  hammer-on
| p  pull-off
| ~  vibrato
| +  harmonic
| x  Mute note
===============================================================================
Добавлено: 07.07.2012
Другие материалы по этой песне:
  • Аккорды и текст

Страница создана 23.05.2012
http://primanota.ru/anais-mitchell/namesake-chords.htm
Привет, Гость.
Предлагаем пройти революционный курс по гитаре.
Подарок от PrimaNota.Ru, забирай!