PrimaNota.ru - самый крупный в мире бесплатный архив песенных текстов, аккордов, табулатур и нот


Anacrusis - Shepards Theme - таба, видео

Регистрация Запомнить меня
Войти через:  Facebook Google Twitter Vk Yandex Mail.ru

Anacrusis - Shepards Theme - таба, видео

Печатать
Просмотров: 93
As recorded by Anacrusis

Transcribed by unregistered
        

Music by Anacrusis

Gtr I (E A D G B E) - 'Untitled'
Gtr II (E A D G B E) - 'Untitled'
Gtr III (E A D G B E) - 'Untitled'
Gtr IV (E A D G B E) - 'Untitled'

 A
  Q=80
  N.C. E5                    A                 B                    E
 4/4
  Gtr I
  E. S E  E E E E. S    E  E Q   Q  Q     E. S E. S E E E E    E  E H.
|-0--2-4--2-0---0----|-----------4--2--|-----0-2--4-5-4-5-4-|--5--7-4-----|
|-------------4----4-|--2--0-----------|--4-----------------|-------------|
|--------------------|-------2---------|--------------------|-------------|
|--------------------|-----------------|--------------------|-------------|
|--------------------|-----------------|--------------------|-------------|
|--------------------|-----------------|--------------------|-------------|
|
|    Gtr II
| Q    H.              +Q    H.          +Q    H.             +Q    H.
|--------------------|-----------------|--------------------|-------0-----|
|------0-------------|-(0)---2---------|-(2)---4------------|-(4)---0-----|
|--------------------|-------2---------|-(2)---4------------|-(4)---1-----|
|------2-------------|-(2)-------------|--------------------|-------------|
|--------------------|-------0---------|-(0)---2------------|-(2)---------|
|------0-------------|-(0)-------------|--------------------|-------0-----|


  E                      A
   E. S Q  Q  Q     E  E E  E E E Q
|--4--5-7--4-----|--2--4-5--4-2-0----|
|-------------5--|----------------2--|
|----------------|-------------------|
|----------------|-------------------|
|----------------|-------------------|
|----------------|-------------------|
|
|  W               +Q    H.
|-(0)------------|-(0)---------------|
|-(0)------------|-(0)---2-----------|
|-(1)------------|-(1)---2-----------|
|--2-------------|-(2)---------------|
|----------------|-------0-----------|
|----------------|-------------------|


        B                   E
   E  E E  E E E Q     E. S H.        +W
|-----0-2--4-5------|--0--2-0-------|-(0)-----------|
|--4-----------2-0--|---------------|---------------|
|-------------------|---------------|---------------|
|-------------------|---------------|---------------|
|-------------------|---------------|---------------|
|-------------------|---------------|---------------|
|
|                                                Gtr IV
| +Q    H.            +Q    H.        +W
|-------------------|-------0-------|-(0)-----------|
|-(2)---4-----------|-(4)---0-------|-(0)-----------|
|-(2)---4-----------|-(4)---1-------|-(1)-----------|
|-------------------|---------------|---------------|
|-(0)---2-----------|-(2)-----------|------------2--|
|-------------------|-------0-------|-(0)-----------|
                                       H.      E E


 B
  N.C.
  Gtr I
  W               E  e S S e H
|---------------|----7---5-7--------|
|---------------|------9------------|
|---------------|-------------------|
|---------------|-------------------|
|---------------|-------------------|
|---------------|-------------------|
| W
|
| W               W
|---------------|-------------------|
|---------------|-------------------|
|---------------|-------------------|
|---------------|-------------------|
|---------------|-------------------|
|---------------|-------------------|
| W               W
|
| Gtr IV
| Q.   E Q.   E   Q.       E Q.   E
|---------------|-------------------|
|---------------|-------------------|
|---------------|-------------------|
|-2------2------|-2----------2------|
|------2------2-|----------2------2-|
|---------------|-------------------|


     E
  E  e S S e e  e S S e   E  e  S S e e  e  S S e
|----7---5-7-7--7---5-7-|----9----7-9-9--9----7-9-|
|------9----------9-----|------10----------10-----|
|-----------------------|-------------------------|
|-----------------------|-------------------------|
|-----------------------|-------------------------|
|-----------------------|-------------------------|
|
| Gtr III
| E  e E   e E  Q     E   E  e  E   e E  Q      E
|----4-4--------4-------|----4--4--------4--------|
|----5-5--------5-------|----5--5--------5--------|
|----------4-4----------|-----------4-4-----------|
|-----------------------|-------------------------|
|-----------------------|-------------------------|
|-----------------------|-------------------------|
|
| Q.       E Q.       E   Q.        E Q.        E
|-----------------------|-------------------------|
|-----------------------|-------------------------|
|-----------------------|-------------------------|
|-2----------2----------|-2-----------2-----------|
|----------2----------2-|-----------2-----------2-|
|-----------------------|-------------------------|


     E                       D#m
  E  e S S e e  e S S e   E  e S S e e  e S S e
|----7---5-7-7--7---5-7-|----2---0-2-2--2---0-2-|
|------9----------9-----|------4----------4-----|
|-----------------------|-----------------------|
|-----------------------|-----------------------|
|-----------------------|-----------------------|
|-----------------------|-----------------------|
|
| E  e E   e E  Q     E   E  e E   e E  Q     E
|----4-4--------4-------|----2-2--------2-------|
|----5-5--------5-------|----4-4--------4-------|
|----------4-4----------|----------4-4----------|
|-----------------------|-----------------------|
|-----------------------|-----------------------|
|-----------------------|-----------------------|
|
| Q.       E Q.       E   Q.       E Q.       E
|-----------------------|-----------------------|
|-----------------------|-----------------------|
|-----------------------|-----------------------|
|-2----------2--------2-|-----------------------|
|----------2------------|-2--------2-2--------2-|
|-----------------------|-----------------------|


     E                       A5/E
  e  S S e e e  S S e e   e   S S e e e   S S e e
|-7----5-7-7-7----5-7-7-|-9-----7-9-9-9-----7-9-9---|
|----9----------9-------|----10----------10---------|
|-----------------------|---------------------------|
|-----------------------|---------------------------|
|-----------------------|---------------------------|
|-----------------------|---------------------------|
|
| E  e   E e E  Q     E   E   e   E e E   Q     E
|----4---4------4-------|-----5---5-------5---------|
|----5---5------5-------|-----5---5-------5---------|
|----------4-4----------|-----------6-6-------------|
|-----------------------|---------------------------|
|-----------------------|---------------------------|
|-----------------------|---------------------------|
|
| Q.       E Q.       E   Q.        E Q.        E
|-----------------------|---------------------------|
|-----------------------|---------------------------|
|-----------------------|---------------------------|
|-2----------2----------|-2-----------2-------------|
|----------2----------2-|-----------2-----------2---|
|-----------------------|---------------------------|


         E                                           B      E     F#m
   S   S S  S  S S  S S S   S S  S  S S  S  S   W           e S S e e Q  Q
|-12--11-9------------------------------------|-----------|-4-----2-2-0------*|
|----------12-10-9----------------------------|-----------|---4-5------------*|
|------------------11-9-8---------------------|-----------|------------------*|
|--------------------------11-9---------------|-----------|------------------*|
|-------------------------------12-11-9-------|-----------|------------------*|
|---------------------------------------12-11-|-----------|------------------*|
|                                               W
|
|  E     e     E    e   E     Q          E      H    H      Q     Q   H
|--------4-----4--------------2---------------|-4---------|-4-----5---4------*|
|--------5-----5--------------4---------------|-5----4----|-5-----7---5------*|
|-------------------4---4---------------------|------4----|------------------*|
|---------------------------------------------|-----------|------------------*|
|---------------------------------------------|-----------|------------------*|
|---------------------------------------------|-----------|------------------*|
|
|  Q.               E   Q.               E      H    H      Q     Q   Q  Q
|---------------------------------------------|-----------|------------------*|
|---------------------------------------------|-----------|------------------*|
|---------------------------------------------|-----------|------------------*|
|--2----------------2-------------------------|-2---------|-2---------2------*|
|-----------------------2----------------2----|------2----|-------2----------*|
|---------------------------------------------|-----------|--------------0---*|



Duration Legend
---------------
W - whole; H - half; Q - quarter; E - 8th; S - 16th; T - 32nd; X - 64th; a - acciaccatura
+ - note tied to previous; . - note dotted; .. - note double dotted
Uncapitalized letters represent notes that are staccato (1/2 duration)
Irregular groupings are notated above the duration line
Duration letters will always appear directly above the note/fret number it represents the
duration for.  Duration letters with no fret number below them represent rests.  Multi-
bar rests are notated in the form Wxn, where n is the number of bars to rest for.  Low
melody durations appear below the staff

Tablature Legend
----------------
 h   - hammer-on
 p   - pull-off
 b   - bend
 pb  - pre-bend
 r   - bend release (if no number after the r, then release immediately)
 /\  - slide into or out of (from/to "nowhere")
 s   - legato slide
 S   - shift slide
 - natural harmonic
[n]  - artificial harmonic
n(n) - tapped harmonic
 ~   - vibrato
 tr  - trill
 T   - tap
 TP  - trem. picking
 PM  - palm muting
\n/  - tremolo bar dip; n = amount to dip
 \n  - tremolo bar down
 n/  - tremolo bar up
/n\  - tremolo bar inverted dip
 =   - hold bend; also acts as connecting device for hammers/pulls
 <> - volume swell (louder/softer)
 x   - on rhythm slash represents muted slash
 o   - on rhythm slash represents single note slash

Misc Legend
-----------
 |  - bar
||  - double bar
||o - repeat start
o|| - repeat end
*|  - double bar (ending)
 :  - bar (freetime)
 $  - Segno
 &  - Coda
Tempo markers -  = BPM(8/16=s8/s16), where s8 = swing 8ths, s16 = swing 16ths

Добавлено: 27.07.2012
Другие материалы по этой песне:

Страница создана 08.07.2012
http://primanota.ru/anacrusis/shepards-theme-chords.htm
Привет, Гость.
Предлагаем пройти революционный курс по гитаре.
Подарок от PrimaNota.Ru, забирай!