PrimaNota.ru - самый крупный в мире бесплатный архив песенных текстов, аккордов, табулатур и нот


Anacrusis - Abdullahs Theme - таба

Регистрация Запомнить меня
Войти через:  Facebook Google Twitter Vk Yandex Mail.ru

Anacrusis - Abdullahs Theme - таба

Печатать
Просмотров: 114
As recorded by Anacrusis

Transcribed by Anacrusis
        

Music by Anacrusis

Gtr I (E A D G B E) - 'Untitled'

   Stupid Rehearsal Sign
                         Q=250
    C#°7/F#              N.C.
   4/4
    Gtr I
     Q   H.              W           W           W           W
||--^0--!0--------||-||------------|-----------|-----------|------------||
||o-^2--!2-------o||-||o-----------|-----------|-----------|-----------o||
||--^0--!0--------||-||------------|-----------|-----------|------------||
||--^2--!2--------||-||------------|-----------|-----------|------------||
||o-^1--!1-------o||-||o-----------|-----------|-----------|-----------o||
||--^2--!2--------||-||--2----2----|-2----2----|-2----2----|-2----2-----||
                         H    H      H    H      H    H      H    H


  N.C.
  E E Q  Q  Q    E E Q  H      E E H     Q    W
|-0-2-3--2-----|-0-----------|--------------|-----------|
|-----------2--|---3-2--2----|-0-3-2--------|-----------|
|--------------|-------------|-----------3--|-----------|
|--------------|-------------|--------------|-4---------|
|--------------|-------------|--------------|-----------|
|-2------2-----|-2------2----|-2------2-----|-2----2----|
  H      H       H      H      H      H       H    H


  E E Q  Q  Q    E E Q  H      E E E Q   E Q    W
|-0-2-3--2-----|-0-----------|-------0---0h2--|-0---------|
|-----------2--|---3-2--2----|-0-2-3----------|-----------|
|--------------|-------------|----------------|-----------|
|--------------|-------------|----------------|-----------|
|--------------|-------------|----------------|-----------|
|-2------2-----|-2------2----|-2-------2------|-2----2----|
  H      H       H      H      H       H        H    H


  Q.   Q.    Q    +W            E E Q  Q  Q    W
|-3----------0--|-(0)---------|--------0-----|-----------|
|------2--------|-------------|-3-2-0-----2--|-----------|
|---------------|-------------|--------------|-3---------|
|---------------|-------------|--------------|-----------|
|---------------|-------------|--------------|-----------|
|-2-------2-----|--2-----2----|-2------2-----|-2----2----|
  H       H        H     H      H      H       H    H


    Q.   Q.    Q    +W            E E E E E E E E   W
||--3----------0--|-(0)---------|-3-2-0-----------|-----------|
||o------2--------|-------------|-------3-2-0-----|-----------|
||----------------|-------------|-------------3-0-|-----------|
||----------------|-------------|-----------------|-4---------|
||o---------------|-------------|-----------------|-----------|
||--2-------2-----|--2-----2----|-2-------2-------|-2----2----|
    H       H        H     H      H       H         H    H


  E E E E Q  Q    E E E Q.   Q     E E E E E  E E  E   E  E E E E E E E
|-0-2-3-3h5--3--|-7-5---8----7--|-10-8-7-8-7----7----|--------------------||
|---------------|-----8---------|------------10---10-|-8-10-8-7-8-7-5-3--o||
|---------------|---------------|--------------------|--------------------||
|---------------|---------------|--------------------|--------------------||
|---------------|---------------|--------------------|-------------------o||
|-0-------------|-0-------------|--0-----------------|-0------------------||
  W               W                W                   W


  E5/F#F#5/C#                   E5/F#F#5/C#G5/D F#5  E5/F#
  Q.   Q.    Q    +W            Q.   Q.    Q    H    H
|-0----2-----2--|-(2)---------|-0----2-----3--|-2----0----|
|-0----2-----2--|-(2)---------|-0----2-----3--|-2----0----|
|---------------|-------------|---------------|-----------|
|---------------|-------------|---------------|-----------|
|---------------|-------------|---------------|-----------|
|-2-------2-----|--2-----2----|-2-------2-----|-2----2----|
  H       H        H     H      H       H       H    H


  F#                E5/B  F#5/CF#
  W           +Q.   Q.    Q    W           +W
|-----------|-------0-----2--|-----------|-------------|
|-2---------|-(2)---0-----2--|-2---------|-(2)---------|
|-3---------|-(3)------------|-3---------|-(3)---------|
|-----------|----------------|-----------|-------------|
|-----------|----------------|-----------|-------------|
|-2----2----|--2-------2-----|-2----2----|--2-----2----|
  H    H       H       H       H    H       H     H


  F#   G     A#m      E5/B F#5    F#   G     A#m      E5/B F#5
  Q.   Q.    Q    +E  Q.   H      Q.   Q.    Q    +E  Q.   H
|---------------|-----0----2----|---------------|-----0----2----|
|------0-----2--|-(2)-0----2----|------0-----2--|-(2)-0----2----|
|-3----0-----3--|-(3)-----------|-3----0-----3--|-(3)-----------|
|-4-------------|---------------|-4-------------|---------------|
|---------------|---------------|---------------|---------------|
|-2-------2-----|--2-------2----|-2-------2-----|--2-------2----|
  H       H        H       H      H       H        H       H


   Dumb Rehearsal Sign
    E5/F#A#m                    E5/B   F#
    Q.   H     +E    +Q   Q.    Q.     W           +W
||--0--------------|------------0----|-----------|-------------|
||o-0----2-----(2)-|-(2)--3-----0----|-2---------|-(2)---------|
||-------3-----(3)-|-(3)--1----------|-3---------|-(3)---------|
||-----------------|-----------------|-----------|-------------|
||o----------------|-----------------|-----------|-------------|
||--2------2-------|--2-------2------|-2----2----|--2-----2----|
    H      H          H       H        H    H       H     H


       E5/B   G5/E A5/E   F5/E G5/D          F5/C
  H    H      H    H      H    H      +H     H
|------0----|-3----5----|-1----3----|-(3)----1-----||
|------0----|-3----5----|-1----3----|-(3)----1----o||
|-----------|-----------|-----------|--------------||
|-----------|-----------|-----------|--------------||
|-----------|-----------|-----------|-------------o||
|-0---------|-0---------|-0---------|--0-----------||
  W           W           W            W


  E5/F#F#5/C#F#5/C#             E5/F#F#5/C#G5/D F#5  E5/F#
  Q.   Q.    Q    +W            Q.   Q.    Q    H    H
|-0----2-----2--|-(2)---------|-0----2-----3--|-2----0----|
|-0----2-----2--|-(2)---------|-0----2-----3--|-2----0----|
|---------------|-------------|---------------|-----------|
|---------------|-------------|---------------|-----------|
|---------------|-------------|---------------|-----------|
|-2-------2-----|--2-----2----|-2-------2-----|-2----2----|
  H       H        H     H      H       H       H    H


  F#                E5/B  F#5/CF#
  W           +Q.   Q.    Q    W           +W
|-----------|-------0-----2--|-----------|-------------|
|-2---------|-(2)---0-----2--|-2---------|-(2)---------|
|-3---------|-(3)------------|-3---------|-(3)---------|
|-----------|----------------|-----------|-------------|
|-----------|----------------|-----------|-------------|
|-2----2----|--2-------2-----|-2----2----|--2-----2----|
  H    H       H       H       H    H       H     H


    E5/F#A#m                    E5/B   F#
    Q.   H     +E    +Q   Q.    Q.     W           +W
||--0--------------|------------0----|-----------|--------------||
||o-0----2-----(2)-|-(2)--3-----0----|-2---------|-(2)---------o||
||-------3-----(3)-|-(3)--1----------|-3---------|-(3)----------||
||-----------------|-----------------|-----------|--------------||
||o----------------|-----------------|-----------|-------------o||
||--2------2-------|--2-------2------|-2----2----|--2-----2-----||
    H      H          H       H        H    H       H     H


  Q=12H.=H                                             Q=75
  C#°7/F#                       Em             C#°7/F#
   Q   H.         Q   H.         Q   H.         Q   H.
|-^0--!0-------|-^0--!0-------|-^0--!0-------|-^0--!0------|
|-^2--!2-------|-^2--!2-------|-^0--!0-------|-^2--!2------|
|-^0--!0-------|-^0--!0-------|-^0--!0-------|-^0--!0------|
|-^2--!2-------|-^2--!2-------|-^2--!2-------|-^2--!2------|
|-^1--!1-------|-^1--!1-------|-^2--!2-------|-^1--!1------|
|-^2--!2-------|-^2--!2-------|-^0--!0-------|-^2--!2------|


 And another one.
  Q=200
  PM-------|    PM-------|    PM           PM
  W             W             W            W
|-------------|-------------|------------|----------|
|-------------|-------------|------------|----------|
|-------------|-------------|------------|----------|
|-------------|-------------|------------|----------|
|-------1-----|-0-----------|------------|----------|
|-2-----------|-------1-----|-0-------1--|-2--------|
  q  Q  q  Q    q  Q  q  Q    q  H    q    q  H.


  PM-|         PM-|         PM-|         PM-|
  W            W            W            W
|------------|------------|------------|----------|
|------------|------------|------------|----------|
|------------|------------|------------|----------|
|------------|------------|------------|----------|
|-0----------|------------|------------|----------|
|------------|-2----------|-0----------|-2--------|
  q  H.        q  H.        q  H.        q  H.


    E5/F# E5/Bb   E5/A  E5/F    F#5/E    F#5/FF#5
----PM-----------------------------|  PM------PM-|   PM-|
    q  q  q  q    q  q  q  q    q  q  q  q    q  q   q  q
||--0--0--0--0--|-0--0--0--0--|-2--2--2--2--|-2--2---2--2--|
||o-0--0--0--0--|-0--0--0--0--|-2--2--2--2--|-2--2---2--2--|
||--------------|-------------|-------------|--------------|
||--------------|-------------|-------------|--------------|
||o-------1-----|-0-----------|-------------|--------------|
||--2-----------|-------1-----|-0--------1--|-2------------|
    q  Q  q  Q    q  Q  q  Q    q  H     q    q  H.


  F#m/A          E5/F#          G5/E      E5/B F#5
--PM----------------------------------------------|
  q  q   q  Q    q  q   q  Q    q  q   Q  q    q  H.
|-2--2---2-----|-0--0---0-----|-3--3------0--|-2---------||
|-2--2---2-----|-0--0---0-----|-3--3------0--|-2--------o||
|--------------|--------------|--------------|-----------||
|--------------|--------------|--------------|-----------||
|-0------------|--------------|--------------|----------o||
|--------------|-2------------|-0------------|-2---------||
  q  H.          q  H.          q  H.          q  H.


    Q=145
    C#°7/F#
    E E E E E  E E E    E  E E  E E E  E E
||---------------0---|-------0-------------|
||o------------2-----|-----2------2--------|
||------0------------|----------0------0---|
||----2---2----------|--------------2------|
||o---------1--------|-------1-----------1-|
||--2--------------2-|-(2)----------2------|
    H       Q.     E   +Q    Q.     Q.


  E E E E E  E E E    E  E E  E E E  E E
|--------------0---|-------0--------------||
|------------2-----|-----2------2--------o||
|-----0------------|----------0------0----||
|---2---2----------|--------------2-------||
|---------1--------|-------1-----------1-o||
|-2--------------2-|-(2)----------2-------||
  H       Q.     E   +Q    Q.     Q.


   H     H       H     H
|-^0----!0----|-^0----!0----|
|-^0----!0----|-^0----!0----|
|-^0----!0----|-^0----!0----|
|-^2----!2----|-^2----!2----|
|-^2----!2----|-^2----!2----|
|-^0----!0----|-^0----!0----|
   H     H       H     H


    E E E Q    E Q     +E  E E  E E E  E E
||---------------0---|-(0)---0-------------|
||o------------2-----|-----2------2--------|
||------0------------|----------0------0---|
||----2---2----------|--------------2------|
||o---------1--------|-------1-----------1-|
||--2--------------2-|-(2)----------2------|
    H       Q.     E   +Q    Q.     Q.


  E E E E E  E E E    E  E E  E E E  E E
|--------------0---|-------0--------------||
|------------2-----|-----2------2--------o||
|-----0------------|----------0------0----||
|---2---2----------|--------------2-------||
|---------1--------|-------1-----------1-o||
|-2--------------2-|-(2)----------2-------||
  H       Q.     E   +Q    Q.     Q.


  F#                               A/F#
                                   |--3--| |--3--|
  W            W                   q q   q q q   q
|-2--------||---------------||-||--0-0---0-0-0---0-|
|-2--------||o-------------o||-||o-2-2---2-2-2---2-|
|-3--------||---------------||-||--2-2---2-2-2---2-|
|----------||---------------||-||------------------|
|----------||o-------------o||-||o-----------------|
|-2--------||--2--2--2--2---||-||--2---2---2---2---|
  W            Q  Q  Q  Q          Q   Q   Q   Q


                    D/F#
  |--3--| |--3--|   |--3--| |--3--|
  q q   q q q   q   q q   q q q   q
|-0-0---0-0-0---0-|------------------|
|-2-2---2-2-2---2-|-3-3---3-3-3---3--|
|-2-2---2-2-2---2-|-2-2---2-2-2---2--|
|-----------------|------------------|
|-----------------|------------------|
|-2---2---2---2---|-2---2---2---2----|
  Q   Q   Q   Q     Q   Q   Q   Q


  D/F#              F#m6
  |--3--| |--3--|   |--3--| |--3--|   |--3--| |--3--|
  q q   q q q   q   q q   q q q   q   q q   q q q   q
|-----------------|-----------------|-----------------|
|-3-3---3-3-3---3-|-4-4---4-4-4---4-|-4-4---4-4-4---4-|
|-2-2---2-2-2---2-|-2-2---2-2-2---2-|-2-2---2-2-2---2-|
|-----------------|-----------------|-----------------|
|-----------------|-----------------|-----------------|
|-2---2---2---2---|-2---2---2---2---|-2---2---2---2---|
  Q   Q   Q   Q     Q   Q   Q   Q     Q   Q   Q   Q


  C#m/F#            C#m/F#
  |--3--| |--3--|   |--3--| |--3--|
  q q   q q q   q   q q   q q q   q
|-0-0---0-0-0---0-|-0-0---0-0-0---0--||
|-2-2---2-2-2---2-|-2-2---2-2-2---2-o||
|-----------------|------------------||
|-----------------|------------------||
|-----------------|-----------------o||
|-2---2---2---2---|-2---2---2---2----||
  Q   Q   Q   Q     Q   Q   Q   Q



Duration Legend
---------------
W - whole; H - half; Q - quarter; E - 8th; S - 16th; T - 32nd; X - 64th; a - acciaccatura
+ - note tied to previous; . - note dotted; .. - note double dotted
Uncapitalized letters represent notes that are staccato (1/2 duration)
Irregular groupings are notated above the duration line
Duration letters will always appear directly above the note/fret number it represents the
duration for.  Duration letters with no fret number below them represent rests.  Multi-
bar rests are notated in the form Wxn, where n is the number of bars to rest for.  Low
melody durations appear below the staff

Tablature Legend
----------------
 h   - hammer-on
 p   - pull-off
 b   - bend
 pb  - pre-bend
 r   - bend release (if no number after the r, then release immediately)
 /\  - slide into or out of (from/to "nowhere")
 s   - legato slide
 S   - shift slide
 - natural harmonic
[n]  - artificial harmonic
n(n) - tapped harmonic
 ~   - vibrato
 tr  - trill
 T   - tap
 TP  - trem. picking
 PM  - palm muting
\n/  - tremolo bar dip; n = amount to dip
 \n  - tremolo bar down
 n/  - tremolo bar up
/n\  - tremolo bar inverted dip
 =   - hold bend; also acts as connecting device for hammers/pulls
 <> - volume swell (louder/softer)
 x   - on rhythm slash represents muted slash
 o   - on rhythm slash represents single note slash

Misc Legend
-----------
 |  - bar
||  - double bar
||o - repeat start
o|| - repeat end
*|  - double bar (ending)
 :  - bar (freetime)
 $  - Segno
 &  - Coda
Tempo markers -  = BPM(8/16=s8/s16), where s8 = swing 8ths, s16 = swing 16ths

Добавлено: 11.05.2012
Другие материалы по этой песне:

Страница создана 22.02.2012
http://primanota.ru/anacrusis/abdullahs-theme-chords.htm
Привет, Гость.
Предлагаем пройти революционный курс по гитаре.
Подарок от PrimaNota.Ru, забирай!