PrimaNota.ru - самый крупный в мире бесплатный архив песенных текстов, аккордов, табулатур и нот


Anabantha - Historia De Terror - таба, видео

Регистрация Запомнить меня
Войти через:  Facebook Google Twitter Vk Yandex Mail.ru

Anabantha - Historia De Terror - таба, видео

Печатать
Просмотров: 121
Уроки эстрадного вокала в Санкт-Петербурге
                  Historia de terror


                                               Anabantha
Pista 1

      Presiona         F5
      Q                        E  Q    E  E  E
E||---------------------------------------------|
B||-------------------------------4----5--4-----|
G||*---------------------------6-------------6--|
D||*--6-----------------------------------------|
A||---4-----------------------------------------|
E||---------------------------------------------|


  Q    E  Q    E  E  E     Q    E  Q    E  E  E
---------------0--------|------------------------|
-------2--4-------4--2--|------------------0-----|
--2---------------------|---------------1-----1--|
------------------------|--2-------2-------------|
--0---------------------|-------2----------------|
------------------------|--0---------------------|


                                 ^    v  ^    v  ^
    E  E  E  Q    E  E  E        Q    E  Q    E  Q
---------------------4------||---4----4--4----4--4----|
------------------4-----4---||---5----5--5----5--5----|
-------------5-------------*||*--6----6--6----6--6----|
----------6----------------*||*--6----6--6----6--6----|
-------6--------------------||---4----4--4----4--4----|
--1g4-----------------------||---4----4--4----4--4----|


  ^    v  ^    v  ^       v    ^  v    ^  v
  Q    E  Q    E  Q       Q    E  Q    E  Q
--0----0--0----0--0----|--0----0--0----0--0----|
--2----2--2----2--2----|--0----0--0----0--0----|
--2----2--2----2--2----|--1----1--1----1--1----|
--2----2--2----2--2----|--2----2--2----2--2----|
--0----0--0----0--0----|--2----2--2----2--2----|
--0----0--0----0--0----|--0----0--0----0--0----|


  ^    v  ^    v  ^          ^    ^  v  ^    ^  v
  Q    E  Q    E  Q          Q    E  E  Q    E  E
--4----4--4----4--4-----||---2----2--2--2----2--2--|
--4----4--4----4--4-----||---4----4--4--4----4--4--|
--5----5--5----5--5----*||*--4----4--4--4----4--4--|
--6----6--6----6--6----*||*--4----4--4--4----4--4--|
--6----6--6----6--6-----||---2----2--2--2----2--2--|
--4----4--4----4--4-----||---2----2--2--2----2--2--|


  ^    v  ^    v  ^       ^    ^  v  ^    ^  v
  Q    E  Q    E  Q       Q    E  E  Q    E  E
--4----4--4----4--4----|--2----2--2--2----2--2--|
--5----5--5----5--5----|--4----4--4--4----4--4--|
--6----6--6----6--6----|--4----4--4--4----4--4--|
--6----6--6----6--6----|--4----4--4--4----4--4--|
--4----4--4----4--4----|--2----2--2--2----2--2--|
--4----4--4----4--4----|--2----2--2--2----2--2--|


  ^    v  ^    v  ^       ^    ^  v  ^    ^  v
  Q    E  Q    E  Q       Q    E  E  Q    E  E
--4----4--4----4--4----|--2----2--2--2----2--2--|
--5----5--5----5--5----|--4----4--4--4----4--4--|
--6----6--6----6--6----|--4----4--4--4----4--4--|
--6----6--6----6--6----|--4----4--4--4----4--4--|
--4----4--4----4--4----|--2----2--2--2----2--2--|
--4----4--4----4--4----|--2----2--2--2----2--2--|


  ^    v  ^    v  ^       v    ^  v    ^  v
  Q    E  Q    E  Q       Q    E  Q    E  Q
--4----4--4----4--4----|--0----0--0----0--0----|
--5----5--5----5--5----|--0----0--0----0--0----|
--6----6--6----6--6----|--1----1--1----1--1----|
--6----6--6----6--6----|--2----2--2----2--2----|
--4----4--4----4--4----|--2----2--2----2--2----|
--4----4--4----4--4----|--0----0--0----0--0----|


  ^    v  ^    v  ^         ^        v
  Q    E  Q    E  Q         H        H
--4----4--4----4--4-----||--4--------4--------|
--4----4--4----4--4-----||--5--------6--------|
--5----5--5----5--5----*||--6--------4--------|
--6----6--6----6--6----*||--6--------6--------|
--6----6--6----6--6-----||--4--------4--------|
--4----4--4----4--4-----||--4--------4--------|


  ^    v  ^    v  ^       ^    ^  v    ^  ^
  Q    E  Q    E  Q       Q    E  Q    E  Q
--2----2--2----2--2----|--2----2--2----2--2----|
--2----2--2----2--2----|--4----4--4----4--4----|
--2----2--2----2--2----|--4----4--4----4--4----|
--4----4--4----4--4----|--4----4--4----4--4----|
--4----4--4----4--4----|--2----2--2----2--2----|
--2----2--2----2--2----|--2----2--2----2--2----|


  v    ^  v    ^  v       ^    v  ^    v  ^
  Q    E  Q    E  Q       Q    E  Q    E  Q
--0----0--0----0--0----|--0----0--0----0--0----|
--0----0--0----0--0----|--2----2--2----2--2----|
--1----1--1----1--1----|--2----2--2----2--2----|
--2----2--2----2--2----|--2----2--2----2--2----|
--2----2--2----2--2----|--0----0--0----0--0----|
--0----0--0----0--0----|--0----0--0----0--0----|


                      ^        v
  W                   H        H
--L----------------|--4--------4--------|
--L----------------|--5--------6--------|
--L----------------|--6--------4--------|
--L----------------|--6--------6--------|
--L----------------|--4--------4--------|
--L----------------|--4--------4--------|


  ^    v  ^    v  ^       ^    ^  v    ^  ^
  Q    E  Q    E  Q       Q    E  Q    E  Q
--2----2--2----2--2----|--2----2--2----2--2----|
--2----2--2----2--2----|--4----4--4----4--4----|
--2----2--2----2--2----|--4----4--4----4--4----|
--4----4--4----4--4----|--4----4--4----4--4----|
--4----4--4----4--4----|--2----2--2----2--2----|
--2----2--2----2--2----|--2----2--2----2--2----|


  v    ^  v    ^  v       ^    v  ^    v  ^
  Q    E  Q    E  Q       Q    E  Q    E  Q
--0----0--0----0--0----|--0----0--0----0--0----|
--0----0--0----0--0----|--2----2--2----2--2----|
--1----1--1----1--1----|--2----2--2----2--2----|
--2----2--2----2--2----|--2----2--2----2--2----|
--2----2--2----2--2----|--0----0--0----0--0----|
--0----0--0----0--0----|--0----0--0----0--0----|


  ^                     ^    ^  v  ^    ^  v
  W                     Q    E  E  Q    E  E
--4----------------||---2----2--2--2----2--2--|
--4----------------||---4----4--4--4----4--4--|
--5----------------||*--4----4--4--4----4--4--|
--6----------------||*--4----4--4--4----4--4--|
--6----------------||---2----2--2--2----2--2--|
--4----------------||---2----2--2--2----2--2--|


  ^    v  ^    v  ^       ^    ^  v  ^    ^  v
  Q    E  Q    E  Q       Q    E  E  Q    E  E
--4----4--4----4--4----|--2----2--2--2----2--2--|
--5----5--5----5--5----|--4----4--4--4----4--4--|
--6----6--6----6--6----|--4----4--4--4----4--4--|
--6----6--6----6--6----|--4----4--4--4----4--4--|
--4----4--4----4--4----|--2----2--2--2----2--2--|
--4----4--4----4--4----|--2----2--2--2----2--2--|


  ^    v  ^    v  ^       ^    ^  v  ^    ^  v
  Q    E  Q    E  Q       Q    E  E  Q    E  E
--4----4--4----4--4----|--2----2--2--2----2--2--|
--5----5--5----5--5----|--4----4--4--4----4--4--|
--6----6--6----6--6----|--4----4--4--4----4--4--|
--6----6--6----6--6----|--4----4--4--4----4--4--|
--4----4--4----4--4----|--2----2--2--2----2--2--|
--4----4--4----4--4----|--2----2--2--2----2--2--|


  ^    v  ^    v  ^       v    ^  v    ^  v
  Q    E  Q    E  Q       Q    E  Q    E  Q
--4----4--4----4--4----|--0----0--0----0--0----|
--5----5--5----5--5----|--0----0--0----0--0----|
--6----6--6----6--6----|--1----1--1----1--1----|
--6----6--6----6--6----|--2----2--2----2--2----|
--4----4--4----4--4----|--2----2--2----2--2----|
--4----4--4----4--4----|--0----0--0----0--0----|


  ^    v  ^    v  ^          ^    v  ^    v  ^
  Q    E  Q    E  Q          Q    E  Q    E  Q
--4----4--4----4--4-----||---4----4--4----4--4----|
--4----4--4----4--4-----||---5----5--5----5--5----|
--5----5--5----5--5----*||*--6----6--6----6--6----|
--6----6--6----6--6----*||*--6----6--6----6--6----|
--6----6--6----6--6-----||---4----4--4----4--4----|
--4----4--4----4--4-----||---4----4--4----4--4----|


  ^    v  ^    v  ^       v    ^  v    ^  v
  Q    E  Q    E  Q       Q    E  Q    E  Q
--0----0--0----0--0----|--0----0--0----0--0----|
--2----2--2----2--2----|--0----0--0----0--0----|
--2----2--2----2--2----|--1----1--1----1--1----|
--2----2--2----2--2----|--2----2--2----2--2----|
--0----0--0----0--0----|--2----2--2----2--2----|
--0----0--0----0--0----|--0----0--0----0--0----|


  ^    v  ^    v  ^       ^    v  ^    v  ^
  Q    E  Q    E  Q       Q    E  Q    E  Q
--4----4--4----4--4----|--4----4--4----4--4----|
--4----4--4----4--4----|--5----5--5----5--5----|
--5----5--5----5--5----|--6----6--6----6--6----|
--6----6--6----6--6----|--6----6--6----6--6----|
--6----6--6----6--6----|--4----4--4----4--4----|
--4----4--4----4--4----|--4----4--4----4--4----|


  ^   ^   ^   ^    v         v    ^  v    ^  v
  E.  E.  E.  Q    Q    S    Q    E  Q    E  Q
--0---0---0---0----0----L-|--0----0--0----0--0----|
--2---2---2---2----2----L-|--0----0--0----0--0----|
--2---2---2---2----2----L-|--1----1--1----1--1----|
--2---2---2---2----2----L-|--2----2--2----2--2----|
--0---0---0---0----0----L-|--2----2--2----2--2----|
--0---0---0---0----0----L-|--0----0--0----0--0----|


  ^                    ^       ^    v  ^    v  ^
  Q    S S S S S S S S Q       Q    E  Q    E  Q
--4----4---4---4---4---4----|--4----4--4----4--4----|
--4----4---4---4---4---4----|--5----5--5----5--5----|
--5----5---5---5---5---5----|--6----6--6----6--6----|
--6----6---6---6---6---6----|--6----6--6----6--6----|
--6----6---6---6---6---6----|--4----4--4----4--4----|
--4----4---4---4---4---4----|--4----4--4----4--4----|


  ^    v  ^    v  ^       v    ^  v    ^  v
  Q    E  Q    E  Q       Q    E  Q    E  Q
--0----0--0----0--0----|--0----0--0----0--0----|
--2----2--2----2--2----|--0----0--0----0--0----|
--2----2--2----2--2----|--1----1--1----1--1----|
--2----2--2----2--2----|--2----2--2----2--2----|
--0----0--0----0--0----|--2----2--2----2--2----|
--0----0--0----0--0----|--0----0--0----0--0----|


  ^    v  ^    v  ^       ^    v  ^    v  ^
  Q    E  Q    E  Q       Q    E  Q    E  Q
--4----4--4----4--4----|--4----4--4----4--4----|
--4----4--4----4--4----|--5----5--5----5--5----|
--5----5--5----5--5----|--6----6--6----6--6----|
--6----6--6----6--6----|--6----6--6----6--6----|
--6----6--6----6--6----|--4----4--4----4--4----|
--4----4--4----4--4----|--4----4--4----4--4----|


  ^   ^   ^   ^    v         ^            ^
  E.  E.  E.  Q    Q    S    H.           Q
--0---0---0---0----0----L-|--0------------0----|
--2---2---2---2----2----L-|--0------------0----|
--2---2---2---2----2----L-|--1------------1----|
--2---2---2---2----2----L-|--2------------2----|
--0---0---0---0----0----L-|--2------------2----|
--0---0---0---0----0----L-|--0------------0----|


  ^                   ^
  W                   W
--4----------------|--4----------------|
--4----------------|--4----------------|
--5----------------|--5----------------|
--6----------------|--6----------------|
--6----------------|--6----------------|
--4----------------|--4----------------|


    Q    E  Q    E  E  E     Q    E  Q    E  E  E
|-------------------------|---------------0--------|
|-----------4----5--4-----|-------2--4-------4--2--|
|*-------6-------------6--|--2---------------------|
|*--6---------------------|------------------------|
|---4---------------------|--0---------------------|
|-------------------------|------------------------|


  Q    E  Q    E  E  E       E  E  E  Q    E  E  E
------------------------|---------------------4------||
------------------0-----|------------------4-----4---||
---------------1-----1--|-------------5-------------*||
--2-------2-------------|----------6----------------*||
-------2----------------|-------6--------------------||
--0---------------------|--1g4-----------------------||


  v
  W
--4----------------||
--5----------------||
--6----------------||
--6----------------||
--4----------------||
--4----------------||


Duration Legend
---------------
W - whole
H - half
Q - quarter
E - 8th
S - 16th
T - 32nd
X - 64th
. - note dotted
|-n-|  - n-tuplets


Tablature Legend
----------------
L - tied note
x - dead note
g - grace note
(n) - ghost note
> - accentuded note
NH - natural harmonic
AH - artificial harmonic
TH - tapped harmonic
SH - semi harmonic
PH - pitch harmonic
h - hammer on
p - pull off
b - bend
br - bendRelease
pb - preBend
pbr - preBendRelease
brb - bendReleaseBend
\n/ - tremolo bar dip
\n - tremolo bar dive
-/n - tremolo bar Release up
/n\ - tremolo bar inverted dip
/n - tremolo bar return
-\n - tremolo bar Release down
S - shift slide
s - legato slide
/ -  slide into from below or out of upwards
\ -  slide into from above or out of downwards
~ - vibrato
W - wide vibrato
tr - trill
TP - tremolo picking
T - tapping
S - slap
P - pop
< - fade in
^ - brush up
v - brush down
Добавлено: 29.08.2013
Другие материалы по этой песне:
  • Аккорды и текст

Страница создана 18.08.2013
http://primanota.ru/anabantha/historia-de-terror-chords.htm
Привет, Гость.
Предлагаем пройти революционный курс по гитаре.
Подарок от PrimaNota.Ru, забирай!