PrimaNota.ru - самый крупный в мире бесплатный архив песенных текстов, аккордов, табулатур и нот


Ana Paula Valadão - Me Ama - аккорды и текст, видео

Регистрация Запомнить меня
Войти через:  Facebook Google Twitter Vk Yandex Mail.ru

Ana Paula Valadão - Me Ama - аккорды и текст, видео

Печатать
Просмотров: 53
Me Ama
Ana Paula Valadão
Intro 2x: A D/F#  E  D
   

E|------9----------9----------9--------9--9--9--9----|
B|---10---10----10---10----10---10----10-10-10-10----|
G|-9----------9----------9-------------9--9--9--9----|
D|---------------------------------------------------|
A|---------------------------------------------------|
E|---------------------------------------------------|


   

E|------9----------9----------9--------9--9--9--9----|
B|---10---10----10---10----10---10----10-10-10-10----|
G|-7----------7----------7-------------7--7--7--7----|
D|---------------------------------------------------|
A|---------------------------------------------------|
E|---------------------------------------------------|


   

E|------12----------12----------12-----12-12-12-12---|
B|---12----12----12----12----12---12---12-12-12-12---|
G|-9-----------9-----------9------------9--9--9--9---|
D|---------------------------------------------------|
A|---------------------------------------------------|
E|---------------------------------------------------|


   

E|------9----------9----------9--------9--9--9--9----|
B|---10---10----10---10----10---10----10-10-10-10----|
G|-7----------7----------7-------------7--7--7--7----|
D|---------------------------------------------------|
A|---------------------------------------------------|
E|---------------------------------------------------|


A
Tem ciúmes de mim
D/F#
O seu amor e como um furacão
E                                  D
E eu me rendo ao vento de sua misericórdia
A                                        D/F#
Então de repente não vejo mais minhas aflições, eu só vejo a glória
E
E percebo quão maravilhoso Ele é
    D
E o tanto que Ele me quer 


A          D/F#
Ô, Ele me amou
         E
Ô, Ele me ama
       D
Ele me amou                         

Solo:


E|---------------------------------------------------|
B|---------------------------------------------------|
G|-14-13-6-----14-13-6-----14-13-6/14~~~-------------|
D|---------------------------------------------------|
A|---------------------------------------------------|
E|---------------------------------------------------|  


A
Tem ciúmes de mim
D/F#
O seu amor e como um furacão
E                                  D
E eu me rendo ao vento de sua misericórdia
A                                        D/F#
Então de repente não vejo mais minhas aflições, eu só vejo a glória
E
E percebo quão maravilhoso Ele é
    D
E o tanto que Ele me quer 


A          D/F#
Ô, Ele me amou
         E
Ô, Ele me ama
       D
Ele me amou

Solo:


E|---------------------------------------------------|
B|---------------------------------------------------|
G|-14-13-6-----14-13-6-----14-13-6/14~~~-------------|
D|---------------------------------------------------|
A|---------------------------------------------------|
E|---------------------------------------------------|  

 
 A
Me ama
       D/F#
Ele me ama
       E
Ele me ama
       D
Ele me ama   (2x)

A
Somos sua herança e Ele é o nosso galardão
D/F#
Seu olhar de graça nos atrai à redenção
E                                D
Se a graça é um oceano estamos afogando
A
O céu se une à terra como um beijo apaixonado
D/F#
Meu coração dispara, em meu peito, acelerado
E
Não tenho tempo para perder com ressentimentos
       D
Quando penso que Ele

A
Me ama 
       D/F#
Ele me ama
      E
Ele me ama
      D
Ele me ama  (2x)

( A  D/F#  E  D ) 2x

---------------------
Thanks to JLS Org.© 2015 for contributing with the song.
Добавлено: 10.11.2015
Другие материалы по этой песне:
  • Аккорды и текст

Страница создана 10.11.2015
http://primanota.ru/ana-paula-valadao/me-ama-chords.htm
Привет, Гость.
Предлагаем пройти революционный курс по гитаре.
Подарок от PrimaNota.Ru, забирай!