PrimaNota.ru - самый крупный в мире бесплатный архив песенных текстов, аккордов, табулатур и нот


Ana Johnsson - We Are - аккорды и текст, таба, перевод, видео

Регистрация Запомнить меня
Войти через:  Facebook Google Twitter Vk Yandex Mail.ru

Ana Johnsson - We Are - аккорды и текст, таба, перевод, видео

Печатать
Просмотров: 911
We Are
Ana Johnsson
----------------------------------------------------------------------------
                             We Are - Ana Johnsson
----------------------------------------------------------------------------Tabbed by: Shiruzu
Email: letaldj@libero.it

Tuning: Standard (E A D G B E)

verse 
   Abm    Em     F#m     B5     Bb5
e|--4------0------2-------2------1---|
B|--4------0------2-------2------1---|
G|--4------0------2-------4------3---|
D|--6------2------4-------4------3---|
A|--6------2------4-------2------1---|
E|--4------0------2-------2------1---|

Abm                  Em            F#m   B5    Bb5             
See the devil on the doorstep now (my oh my) 
Abm                 Em            F#m         B5    Bb5  
Telling everybody oh just how to live their lives 
Abm                  Em           
Sliding down the information highway 
F#m                    B5       Bb5  
Buying in just like a bunch of fools 
Abm                  Em            F#m      B5    Bb5  
Time is ticking and we can't go back (my oh my) 

Pre-Chorus

Abm
What about the world today
F#m                            
What about the place that we call home 
Abm
We've never been so many 
F#m (let ring)
And we've never been so alone

Chorus: Distortion
   Ab5   E5    F#5     B5   Bb5
e|------------------------------|
B|------------------------------|
G|----------------------4----3--|
D|--6----2------4-------4----3--|
A|--6----2------4-------2----1--|
E|--4----0------2---------------|

Ab5                    E5
You keep watching from your picket fence
F#5                        B5     Bb5
You keep talking but it makes no sense
Ab5                   E5
You say we're not responsable 
     F#5      B5   Bb5   
But we are, we are 
Ab5                 E5
You wash your hands you come out clean 
F#5                      B5     Bb5
Fail to recognise the enemies within 
Ab5                   E5
You say we're not responsible 
     F#5      B5   Bb5    
But we are, we are
we are 
 
verse

Abm                     Em              F#m     B5    Bb5 
One step forward making two steps back (my oh my)
Abm                   Em                F#m      B5    Bb5
Riding piggy on the bad boys back for life 

Pre-Chorus
 
Abm
Lining up for the grand illusion 
F#m
No answers for no questions asked 
Abm
Lining up for the execution 
F#m
Without knowing why 
Добавлено: 29.05.2012
Другие материалы по этой песне:
  • Аккорды и текст

Страница создана 11.04.2012
http://primanota.ru/ana-johnsson/we-are-chords.htm
Привет, Гость.
Предлагаем пройти революционный курс по гитаре.
Подарок от PrimaNota.Ru, забирай!