PrimaNota.ru - самый крупный в мире бесплатный архив песенных текстов, аккордов, табулатур и нот


Ana Belen - Amanecí En Tus Brazos - таба, видео

Регистрация Запомнить меня
Войти через:  Facebook Google Twitter Vk Yandex Mail.ru

Ana Belen - Amanecí En Tus Brazos - таба, видео

Печатать
Просмотров: 98
Canta a dúo con Chavela Vargas 

INTRO
    F                    C7           F
E --------1--5--3--5----3--5--6--5---1--
B -----1-------------------5--7--5---1--
G --2-----2--5--3--5----3------------2--
D -----3-----------3----3------------3--
A --3----------------------------3---3--
E -----------------------------------1--

  
              F  C7        F
Amanecí otra vez entre tus brazos
                    D°     C7        
y desperté llorando de alegría
           Gm                C7
me cobijé la cara con tus manos
                     B+5  F   
para seguirte amando todavía.


             F  C7       F
Te despertaste tú casi dormida
                Cm  F7        Bb
y me querías decir, no sé que cosa
                   C7      Am   D7
pero callé tu boca con mis besos
              Gm     C7 C+5    F
y así pasaron muchas, muchas horas.


                 G7
Cuando llegó la noche

y apareció la luna
              C7
y entró por la ventana,
            G7
que cosa más bonita

cuando la luz del cielo
            C7   C+5
iluminó tu cara.


                F   C7        F
Yo me volví a meter entre tus brazos
                Cm   F7        Bb
tu me querías decir, no sé que cosa
                   C7      Am    D7
pero callé tu boca con mis besos
              Gm     C7 C+5    F
y así pasaron muchas, muchas horas.

PUENTE

    F                    C7           F                 Cm                Bb
E --------1--5--3--5----3--5--6--5---1--1--1--1--8--7--8--10--10--10--8--6--
B -----1-------------------5--7--5---1--------------------------------------
G --2-----2--5--3--5----3------------2--3--3--3--8--8--8--10--10--10--9--8--
D -----3-----------3----3---------------------------------------------------
A --3----------------------------3------------------------------------------
E -----------------------------------1-----------------8-----------------6--

INTRO
                        C7         Am     D7             Gm       C7 F
E --3--3--5--6--5--6--3---8--8--6--5---------1--5--3--6--3--6--5--3--1--|
B -------------------------------------1--1--------------------------1--|
G --3--3--5--7--5--7--3---9--9--9--5---------2--5--3--7--3--7--5--3--2--|
D ---------------------------------3---3--3--------------------------3--|
A --------------------3-------------------------------------------3--3--|
E -------------------------------------------------------3-----------1--|

                 G7
Cuando llegó la noche

y apareció la luna
              C7
y entró por la ventana,
            G7
que cosa más bonita

cuando la luz del cielo
            C7   C+5
iluminó tu cara.


                F   C7        F
Yo me volví a meter entre tus brazos
                Cm   F7        Bb
tu me querías decir, no sé que cosa
                   C7      Am    D7
pero callé tu boca con mis besos
              Gm     C7 C+5    F
y así pasaron muchas, muchas horas.


FINAL
    F                    C7           F
E --------1--5--3--5----3--5--6--5---1--|
B -----1-------------------5--7--5---1--|
G --2-----2--5--3--5----3------------2--|
D -----3-----------3----3------------3--|
A --3----------------------------3---3--|
E -----------------------------------1--|
Добавлено: 08.08.2015
Вам также может быть интересно:
Другие материалы по этой песне:
  • Аккорды и текст

Страница создана 08.08.2015
http://primanota.ru/ana-belen/amaneci-en-tus-brazos-chords.htm
Привет, Гость.
Предлагаем пройти революционный курс по гитаре.
Подарок от PrimaNota.Ru, забирай!