PrimaNota.ru - самый крупный в мире бесплатный архив песенных текстов, аккордов, табулатур и нот


An Jell - Still - таба, видео

Регистрация Запомнить меня
Войти через:  Facebook Google Twitter Vk Yandex Mail.ru

An Jell - Still - таба, видео

Печатать
Просмотров: 505
Song: Still [Bossa Version]
Artist: A.N.JELL
Album: You're Beautiful OST

Tuning: Standard

I converted some parts to guitar.. :3

Guitar 2 plays licks and chord variations all throughout the song..
I'll update that later, I completed the other guitar first..

##############################################################################################
# Hey there to all co-fans of the Go Mi Nam series: my sister, Lee-ann, ana, marlene, 
xTin,  #
# denden,and more.. Whew hirap tlga mag-english.. xD Salamat kay Janjan sa pagpapahiram 
ng   #
# gitara..                                                                               
    #
# Binabati ko nga pala ang mga CoEt at iba pang TUPcian.. Hi daw Diana Kristine.. xD   
:3    #
##############################################################################################

_____________________________________________________________________________________
Intro:

Guitar:
|-0~------0~------0~----------5----3--0~-|
|-5~------5~------5~------5/7----5----2~-|
|-7~------4~------0~------2/-------------|
|----------------------------------------|
|----------------------------------------|
|----------------------------------------|

Guitar 2:
[this part is actually keys.. ]

|------------0-5~---|
|---3-5~------------|
|-------------------|
|-------------------| X6
|-------------------|
|-------------------|
_____________________________________________________________________________________
Verse:(0:13)

Guitar 1:
|-----------------4h5-5~-------------------4h5-5~-----5-5--3-3--2-2h3~--|
|-3-5--3-5----3-5----------3-5--3-5----3-5----------5-------------------|
|-----------------------------------------------------------------------|
|-----------------------------------------------------------------------|
|-----------------------------------------------------------------------|
|-----------------------------------------------------------------------|


-3-3--2-0-2--2--3-3--0h2-0~--|
-----------------------------|
-----------------------------|
-----------------------------|
-----------------------------|
-----------------------------|

Guitar 2: D-Bm-G-A
|----5-------------3------0-----|
|----5-------------3------2-----|
|----7------4------0------2-----|
|----7------4------0------2-----|
|----5------2------2------0-----|
|------------------3------------|

Guitar 1:                                           Guitar 2 plays a short lick here:
|-----------------4h5-5~-------------------4h5-5s7~--| |---------10---9---------|
|-3-5--3-5----3-5----------3-5--3-5----3-5-----------| |--7-8s10----------10----|
|----------------------------------------------------| |------------------------|
|----------------------------------------------------| |------------------------|
|----------------------------------------------------| |------------------------|
|----------------------------------------------------| |------------------------|

Guitar 1:
|--7--9-9h10--7--7--9-9h10-7--10--12--14-14--15--12~---|
|------------------------------------------------------|
|------------------------------------------------------|
|------------------------------------------------------|
|------------------------------------------------------|
|------------------------------------------------------|
_____________________________________________________________________________________
Chorus:

|----------------------------------------------------|
|-----------5--7h8-8--7~--------------5--7h8-8--7~---|
|-----7---7---------------------7---7----------------|
|-6s7---7-------------------6h7---7------------------|
|----------------------------------------------------|
|----------------------------------------------------|


----------------------------------------------------|
-7-8--10-10--8-8--7-7h8~---8-8-7-5-7-7--8-8-5h7-5~--|
----------------------------------------------------|
----------------------------------------------------|
----------------------------------------------------|
----------------------------------------------------|

|----------------------------------------------------|
|-----------5--7h8-8--7~----7h8-7-5---5-7h8-8--7~----|
|-----7---7-------------------------7----------------|
|-6s7---7--------------------------------------------|
|----------------------------------------------------|
|----------------------------------------------------|

----------------------------------------------------|
-7-8--10-10--8-8--7-7h8~---8-8-7-5-7-7--8-8-5h7-5~--|
----------------------------------------------------|
----------------------------------------------------|
----------------------------------------------------|
----------------------------------------------------|
_____________________________________________________________________________________
Verse 2:(2:06)

|-----------------------------------------------|
|-----------------------------------------------|
|-----------------------------------------------|
|--------------6s7-7~---------------6s7-7s9~----|
|-5-7-5-7--5-7---------5-7-5-7--5-7-------------|
|-----------------------------------------------|

-----------------------------------------------------|
-----------------------------------------------------|
-------------------------------9--11-9h11--12--8h9~--|
-9-11-12---9--9---11-12--9--12-----------------------|
-----------------------------------------------------|
-----------------------------------------------------|
_____________________________________________________________________________________
Chorus 2:

|----------------------------------------------------|
|-----------5--7h8-8--7~--------------5--7h8-8--7~---|
|-----7---7---------------------7---7----------------|
|-6s7---7-------------------6h7---7------------------|
|----------------------------------------------------|
|----------------------------------------------------|


----------------------------------------------------|
-7-8--10-10--8-8--7-7h8~---8-8-7-5-7-7--8-8-5h7-5~--|
----------------------------------------------------|
----------------------------------------------------|
----------------------------------------------------|
----------------------------------------------------|

|----------------------------------------------------|
|-----------5--7h8-8--7~----7h8-7-5---5-7h8-8--7~----|
|-----7---7-------------------------7----------------|
|-6s7---7--------------------------------------------|
|----------------------------------------------------|
|----------------------------------------------------|

----------------------------------------------------|
-7-8--10-10--8-8--7-7h8~---8-8-7-5-7-7--8-8-5h7-5~--|
----------------------------------------------------|
----------------------------------------------------|
----------------------------------------------------|
----------------------------------------------------|

(1:45)
|-----------------------|
|---5s7-5--3--3s5--3~---|
|-----------------------|
|-----------------------|
|-----------------------|
|-----------------------|
_____________________________________________________________________________________
Outro:(2:00)

Guitar 1:
|-------0~-----|
|------5~------|
|-----7~-------|
|--------------|
|--------------|
|--------------|

Guitar 2 plays a lick quickly after Guitar 1:
|---8h9-----------------------|
|--------10-------------------|
|------------11-------14~-----|
|---------------11s14---------|
|-----------------------------|
|-----------------------------|

That's it. :3
Добавлено: 11.04.2012
Вам также может быть интересно:
Другие материалы по этой песне:
  • Аккорды и текст

Страница создана 11.04.2012
http://primanota.ru/an-jell/still-chords.htm
Привет, Гость.
Предлагаем пройти революционный курс по гитаре.
Подарок от PrimaNota.Ru, забирай!