PrimaNota.ru - самый крупный в мире бесплатный архив песенных текстов, аккордов, табулатур и нот


An Horse - Know This Weve Noticed - таба, видео

Регистрация Запомнить меня
Войти через:  Facebook Google Twitter Vk Yandex Mail.ru

An Horse - Know This Weve Noticed - таба, видео

Печатать
Просмотров: 157
Уроки эстрадного вокала в Санкт-Петербурге
Artist: An Horse
Song: Know This We've Noticed
Album: Walls
Tuning: Standard (Capo 2nd fret)

Reference Video: http://www.youtube.com/watch?v=EauEQ54JM4o

Rate and comment!

Intro 

e |--------------------------------------------------------|
B |---------0------------0--------------------------0------|
G |-------0---0--------0---0--------0------0------0---0----|
D |-----0-------0----0-------0----0------0------0-------0--|
A |--2/5-----------7------------3------5-----5\2-----------| 	
E |--------------------------------------------------------|

Verse 1

e |--------------------------------------------------------|
B |---------0------------0--------------------------0------|
G |-------0---0--------0---0--------0------0------0---0----|
D |-----0-------0----0-------0----0------0------0-------0--|
A |--2/5-----------7------------3------5-----5\2-----------| 	
E |--------------------------------------------------------|

You're a fire in my mind
But you're out of bounds (And you're out of bounds)
And that is fine (But that is fine)
I don't know why this started off like we do
But I know we've got better things to do

Pre-Chorus

e |-----------------------------------------|
B |--------0---------------0---------0------|
G |------0---0-----------0---0-----0---0----|
D |----0-------0-------0------0--0-------0--|
A |--2-------------2/3----------5-----------| 	
E |-----------------------------------------|

e |-----------------------------------------|
B |--------0---------------0---------0------|
G |------0---0-----------0---0-----0---0----|
D |----0-------0-------0------0--0-------0--|
A |--5-------------3/2----------2-----------| 	
E |-----------------------------------------|

To do
To do
To do

Chorus 1

e |--0------0--------------|
B |--0------0--------------|
G |--0------0--------------|
D |--0------0--------------|
A |--5/-----12-------------| 	
E |--3/-----10-------------|

But know this, we've noticed
I've noticed that you're not fine

Verse 2

e |--------------------------------------------------------|
B |---------0------------0--------------------------0------|
G |-------0---0--------0---0--------0------0------0---0----|
D |-----0-------0----0-------0----0------0------0-------0--|
A |--2/5-----------7------------3------5-----5\2-----------| 	
E |--------------------------------------------------------|

There's that moment that it all ends again
I haven't forgotten a single one
I look out for you
Oh I swear I do
But I think everyone's lost their minds
Their minds
Their minds
Their minds

Chorus 2

e |--0------0--------------|
B |--0------0--------------|
G |--0------0--------------|
D |--0------0--------------|
A |--5/-----12-------------| 	
E |--3/-----10-------------|

But know this, we've noticed
I've noticed that you're not fine
But know this, we've noticed
I've noticed that you're not fine

Know this; we've noticed that you're not fine
Know this; we've noticed that you're not fine
Know this; we've noticed that you're not fine
Know this; we've noticed that you're not fine

Bridge

e |--0------0--------------|
B |--0------0--------------|
G |--0------0--------------|
D |--0------0--------------|
A |--5/-----12-------------| 	
E |--3/-----10-------------|

Do this before with everyone
We all take our turn and you're never there
I crawl around and in a little voice
To talk to you, to find you
I crawl around and in a little voice
To talk to you, to find you

I crawl around, I crawl around ‘til I find you
I crawl around, I crawl around ‘til I find you
I crawl around, I crawl around ‘til I find you
I crawl around, I crawl around ‘til I find you

Fine...

Chorus

e |--0------0----------|
B |--0------0----------|
G |--0------0----------|
D |--0------0----------|
A |--5/-----12---------| 	
E |--3/-----10---------|

e |--x------x----------|
B |--x------x----------|
G |--4------11---------|
D |--5------12---------|
A |--5/-----12---------| 	
E |--3/-----10---------|

Outro

There's that moment that it all ends again
I haven't forgotten a single one

e |--------------------------------------------------------|
B |---------0------------0--------------------------0------|
G |-------0---0--------0---0--------0------0------0---0----|
D |-----0-------0----0-------0----0------0------0-------0--|
A |--2/5-----------7------------3------5-----5\2-----------| 	
E |--------------------------------------------------------|


Добавлено: 29.07.2012
Другие материалы по этой песне:
  • Аккорды и текст

Страница создана 20.05.2012
http://primanota.ru/an-horse/know-this-weve-noticed-chords.htm
Привет, Гость.
Предлагаем пройти революционный курс по гитаре.
Подарок от PrimaNota.Ru, забирай!