PrimaNota.ru - самый крупный в мире бесплатный архив песенных текстов, аккордов, табулатур и нот


An Endless Sporadic - The Adventures Of Jabubu - таба, бас-таба, видео

Регистрация Запомнить меня
Войти через:  Facebook Google Twitter Vk Yandex Mail.ru

An Endless Sporadic - The Adventures Of Jabubu - таба, бас-таба, видео

Печатать
Просмотров: 139
THE ADVENTURES OF JABUBU
by An Endless Sporadic
Music by Zack Kamins, Andy Gentile

This is a modified version of guywithguitar's tab all credit goes to him

Gtr I (D A D G B E) 
Gtr II (D A D G B E) 
Gtr III (D A D G B E) 
Gtr IV (D A D G B E) 
Gtr V (D A D G B E) 
Gtr VI (E A D G B E) 

  Q=195
 4/4
  Gtr I
   H     H       H     H       W               +W
|-21----17----|-------------|---------------|-------------|
|-------------|-19----15----|-17tr19--------|-(17tr19)----|
|-------------|-------------|---------------|-------------|
|-------------|-------------|---------------|-------------|
|-------------|-------------|---------------|-------------|
|-------------|-------------|---------------|-------------|


  Q  E   Q  E Q    W          Q  E E E E E E   +H      H
|----------------|----------|----------------|--------------|
|----------------|----------|----------------|--------------|
|-8--6-/11--9----|----------|-8--6-----------|--------------|
|----------------|----------|------9---7---9-|-(9)----10----|
|----------------|----------|----------------|--------------|
|----------------|----------|----------------|--------------|


  Q  E   Q  E Q    W          Q  E E E E E E   +Q.    E E Q.
|----------------|----------|----------------|-----------------|
|----------------|----------|----------------|-----------------|
|-8--6-/11--9----|----------|-8--6-----------|------------7----|
|----------------|----------|------9---7---9-|-(9)---10--------|
|----------------|----------|----------------|-----------------|
|----------------|----------|----------------|-----------------|


   Q  E   Q   E Q    W           Q  E  E E  E E E   +H      H
|------------------|----------|-------------------|--------------|
|------------------|----------|-------------------|--------------|
|--8--6-/11---9----|----------|--8--6-------------|--------------|
|------------------|----------|--------9----7---9-|-(9)----10----|
|------------------|----------|-------------------|--------------|
|------------------|----------|-------------------|--------------|
|
| Gtr II
|  Q  E   Q   E Q    W           Q  E  E E  E E E   +H      H
|------------------|----------|-------------------|--------------|
|------------------|----------|-------------------|--------------|
|-11--9-/16--12----|----------|-11--9-----------9-|-(9)----10----|
|------------------|----------|-------12---10-----|--------------|
|------------------|----------|-------------------|--------------|
|------------------|----------|-------------------|--------------|


   Q  E   Q   E Q    W           Q  E  E E  E E E   +Q.    E E  Q.
|------------------|----------|-------------------|------------------|
|------------------|----------|-------------------|------------------|
|--8--6-/11---9----|----------|--8--6-------------|-------------7----|
|------------------|----------|--------9----7---9-|-(9)---10---------|
|------------------|----------|-------------------|------------------|
|------------------|----------|-------------------|------------------|
|
|  Q  E   Q   E Q    W           Q  E  E E  E E E   +Q.    E E  Q.
|------------------|----------|-------------------|------------------|
|------------------|----------|-------------------|------------------|
|-11--9-/16--12----|----------|-11--9-----------9-|-(9)---10---12----|
|------------------|----------|-------12---10-----|------------------|
|------------------|----------|-------------------|------------------|
|------------------|----------|-------------------|------------------|


  Gtr IV
   H           +E   E  E  E   H       E  E  E  E
|---------------------------|--------------------|
|------------------------10-|-----------10-13-12-|
|---------------------10----|--------------------|
|-12----------(12)-12-------|--------------------|
|---------------------------|--------------------|
|---------------------------|--------------------|
|
| Gtr V
|  e  e  e  e   e   e  e  e   e e e e e  e  e  e
|---------------------------|--------------------|
|---------------------------|--------------------|
|-10-10-10-10--10--10-10--9-|-9-9-9-9-9--9--9--9-|
|-10-10-10-10--10--10-10--7-|-7-7-7-7-7--7--7--7-|
|---------------------------|--------------------|
|---------------------------|--------------------|


  E  E E  E E  E E  E   E E E  E E  E  E  E
|---------------------|---------------------|
|---------------------|---------------------|
|---12----------------|---------------------|
|--------14---10---12-|---9---10-9-12----10-|
|---------------------|---------------------|
|---------------------|---------------------|
|
| e  e e  e e  e e  e   e e e  e e  e  e  e
|---------------------|---------------------|
|---------------------|---------------------|
|-9--9-9--9-9--9-9----|---------------------|
|-9--9-9--9-9--9-9--9-|-9-9-9--9-9-10-10-10-|
|-------------------8-|-8-8-8--8-8--8--8--8-|
|---------------------|---------------------|


   H           +E   E  E   a  E   H       E  E  E  E
|-------------------------------|--------------------|
|-------------------------------|--------------------|
|---------------------10-(10)s9-|--------------------|
|-12----------(12)--------------|-----------10-12-10-|
|------------------12-----------|--------------------|
|-------------------------------|--------------------|
|
|  e  e  e  e   e   e  e      e   e e e e e  e  e  e
|-------------------------------|--------------------|
|-------------------------------|--------------------|
|-10-10-10-10--10--10-10------9-|-9-9-9-9-9--9--9--9-|
|-10-10-10-10--10--10-10------7-|-7-7-7-7-7--7--7--7-|
|-------------------------------|--------------------|
|-------------------------------|--------------------|


    E  E   E  E  E  E  E  E     a  E  E  H          a   E  E
|---------------------------|---------------------------------|
|---------------------------|---------------------------------|
|-----12--------------------|---------------------------------|
|-/14----\12-10-12-10----10-|-(10)s9--------------------------|
|---------------------12----|--------10-----------------------|
|---------------------------|-----------12--------(12)s14-----|
|
|   e  e   e  e  e  e  e  e        e  e  e e e  e       e  e
|---------------------------|---------------------------------|
|---------------------------|---------------------------------|
|---9--9---9--9--9--9--9----|---------------------------------|
|---9--9---9--9--9--9--9--9-|------9--9--9-9-9-10------10-10--|
|-------------------------8-|------8--8--8-8-8--8-------8--8--|
|---------------------------|---------------------------------|


   a  H           +E   E  E  E   H       E  E  E  E
|------------------------------|--------------------|
|---------------------------10-|-----------10-13-12-|
|------------------------10----|--------------------|
|-10h12----------(12)-12-------|--------------------|
|------------------------------|--------------------|
|------------------------------|--------------------|
|
|     e  e  e  e   e   e  e  e   e e e e e  e  e  e
|------------------------------|--------------------|
|------------------------------|--------------------|
|----10-10-10-10--10--10-10--9-|-9-9-9-9-9--9--9--9-|
|----10-10-10-10--10--10-10--7-|-7-7-7-7-7--7--7--7-|
|------------------------------|--------------------|
|------------------------------|--------------------|


  E  E E  E E  E E  E   E E E  E E  E  E  E
|---------------------|----------------------|
|---------------------|----------------------|
|---12----------------|----------------------|
|--------14---10---12-|---9---10-9-12----10--|
|---------------------|----------------------|
|---------------------|----------------------|
|
| e  e e  e e  e e  e   e e e  e e  e  e  e
|---------------------|----------------------|
|---------------------|----------------------|
|-9--9-9--9-9--9-9----|----------------------|
|-9--9-9--9-9--9-9--9-|-9-9-9--9-9-10-10-10--|
|-------------------8-|-8-8-8--8-8--8--8--8--|
|---------------------|----------------------|


   H           +E   E  E   a  E   H       E  E  E  E
|-------------------------------|--------------------|
|-------------------------------|--------------------|
|---------------------10-(10)s9-|--------------------|
|-12----------(12)--------------|-----------10-12-10-|
|------------------12-----------|--------------------|
|-------------------------------|--------------------|
|
|  e  e  e  e   e   e  e      e   e e e e e  e  e  e
|-------------------------------|--------------------|
|-------------------------------|--------------------|
|-10-10-10-10--10--10-10------9-|-9-9-9-9-9--9--9--9-|
|-10-10-10-10--10--10-10------7-|-7-7-7-7-7--7--7--7-|
|-------------------------------|--------------------|
|-------------------------------|--------------------|


    E  E   E  E  E  E  E  E     a   E  E  Q.        E  Q
|---------------------------|-------------------------------|
|---------------------------|-------------------------------|
|-----12--------------------|-------------------------------|
|-/14----\12-10-12-10----10-|-(10)s=9-----------------------|
|---------------------12----|---------10--------------------|
|---------------------------|------------12--------10--9----|
|
|   e  e   e  e  e  e  e  e         e  e  e   e  e  e  e  e
|---------------------------|-------------------------------|
|---------------------------|-------------------------------|
|---9--9---9--9--9--9--9--7-|-------7--7--7---7--7--7--7--7-|
|---9--9---9--9--9--9--9----|-------------------------------|
|------------------------10-|------10-10-10--10-10-10-10-10-|
|---------------------------|-------------------------------|


  E  E E Q  E   Q      E E  H.        E E E Q  Q.     E E Q  E E Q
|-------------------|---------------|---------------|---------------|
|--------0----------|---------------|-------0-------|---------------|
|------9----9-------|------11-------|-----9----9----|-----2------2--|
|---11--------(11)--|----9----------|---7-----------|---1------0----|
|-0-----------------|-10------------|-9-------------|-2------1------|
|-------------------|---------------|---------------|---------------|


    E  E E Q  E   E   E     E E  H.        E  E  E E +H       +W
|------------------------|---------------|---------0-(0)----|-(0)----|
|----------0-------------|---------------|------11----------|--------|
|--------9----9----------|------11-------|---10-------------|--------|
|-/11-11--------(11)-----|----9----------|-0----------------|--------|
|--------------------(0)-|-10------------|------------------|--------|
|------------------------|---------------|------------------|--------|


  Gtr I
   E  E  E  E  E  E  E E   E E E E E E E E
|------------------------|-----------------|
|------------------------|-----------------|
|--9-----9--9----------7-|---7---7---------|
|----------------10------|-----------9---9-|
|------------------------|-----------------|
|------------------------|-----------------|
|
| Gtr II
|  PM---------------------------------------
|  e  e  e  e  e  e  e e   e e e e e e e e
|------------------------|-----------------|
|------------------------|-----------------|
|------------------------|-----------------|
|------------------------|-----------------|
|-10-10-10-10-10-10-10-9-|-9-9-9-9-9-9-9-9-|
|------------------------|-----------------|


                               |--3---| |--3---|
   E E  E  E E E E E   E E E E E E    E E E    E
|--------------------|---------------------------|
|--------------------|---------------------------|
|--------------------|------------------7-9---11-|
|-10---10-10---7---9-|---9---9-7-9---10----------|
|--------------------|---------------------------|
|--------------------|---------------------------|
|
|-------------------------------------------|
|  e e  e  e e e e e   e e e e e   e    e   e
|--------------------|---------------------------|
|--------------------|---------------------------|
|--------------------|---------------------------|
|--------------------|---------------------------|
|--7-7--7--7-7-7-7-5-|-5-5-5-5-5---5----5---5----|
|--------------------|---------------------------|


                                  |-3--| |--3--|
   E E  E  E E E E  E   E  E E  E E E  E E  E  E
|---------------------|--------------------------|
|---------------------|------------------8-10-12-|
|-12---12-12---9---11-|---11---11-7-9-11---------|
|---------------------|--------------------------|
|---------------------|--------------------------|
|---------------------|--------------------------|
|
|  PM---------------------------------------------
|  e e  e  e e e e  e   e  e e  e e e  e e
|---------------------|--------------------------|
|---------------------|--------------------------|
|---------------------|--------------------------|
|---------------------|--------------------------|
|--5-5--5--5-5-5-5--5-|-5--5-5--5-5-5--5-5-------|
|---------------------|--------------------------|


   E E  E  E E  E E  E   E   E E  E  +Q       Q
|----------------------|---/12---10-(10)\----------|
|-13---13-13---10---12-|---------------------------|
|----------------------|---------------------------|
|----------------------|---------------------------|
|----------------------|---------------------------|
|----------------------|---------------------------|
|
|-----------------------------------------------|
|  e e  e  e e  e e  e   e   e e  e   e    e  e  e
|----------------------|---------------------------|
|----------------------|---------------------------|
|----------------------|---------------------------|
|----------------------|---------------------------|
|--8-8--8--8-8--8-8--7-|-7---7-7-10--10---10-10-10-|
|----------------------|---------------------------|


   E  E  E  E  E  E  E E    E E E E E E E E
|------------------------|------------------|
|------------------------|------------------|
|--9-----9--9----------7-|----7---7---------|
|----------------10------|------------9---9-|
|------------------------|------------------|
|------------------------|------------------|
|
|  PM----------------------------------------
|  e  e  e  e  e  e  e e    e e e e e e e e
|------------------------|------------------|
|------------------------|------------------|
|------------------------|------------------|
|------------------------|------------------|
|-10-10-10-10-10-10-10-9-|--9-9-9-9-9-9-9-9-|
|------------------------|------------------|
|
| Gtr III
|  W                        W
|-15---------------------|-14---------------|
|------------------------|------------------|
|------------------------|------------------|
|------------------------|------------------|
|------------------------|------------------|
|------------------------|------------------|


                                 |--3---| |-3--|
   E E  E  E E E E E     E E E E E E    E E E  E
|--------------------|----------------------------|
|--------------------|----------------------------|
|--------------------|--------------------7-9-11--|
|-10---10-10---7---9-|-----9---9-7-9---10---------|
|--------------------|----------------------------|
|--------------------|----------------------------|
|
|-----------------------------------------|
|  e e  e  e e e e e     e e e e e   e  e e
|--------------------|----------------------------|
|--------------------|----------------------------|
|--------------------|----------------------------|
|--------------------|----------------------------|
|--7-7--7--7-7-7-7-5-|---5-5-5-5-5---5--5-5-------|
|--------------------|----------------------------|
|
|  W                     W
|-12-----------------|-/17------------------------|
|--------------------|----------------------------|
|--------------------|----------------------------|
|--------------------|----------------------------|
|--------------------|----------------------------|
|--------------------|----------------------------|


                                        |---3----| |---3---|
      E E  E  E E E E  E    E  E E  E   E   E    E E  E    E
|------------------------|-----------------------------------|
|------------------------|-------------------------8-10---12-|
|----12---12-12---9---11-|----11---11---7---9---11-----------|
|------------------------|-----------------------------------|
|------------------------|-----------------------------------|
|------------------------|-----------------------------------|
|
|     PM------------------------------------------------------
|     e e  e  e e e e  e    e  e e  e   e     e    e    e
|------------------------|-----------------------------------|
|------------------------|-----------------------------------|
|------------------------|-----------------------------------|
|------------------------|-----------------------------------|
|-----5-5--5--5-5-5-5--5-|--5--5-5--5---5-----5----5----5----|
|------------------------|-----------------------------------|
|
|  a  W                     H          +Q          Q
|------------------------|-----------------------------------|
|-15h17------------------|-15---------(15)\------------------|
|------------------------|-----------------------------------|
|------------------------|-----------------------------------|
|------------------------|-----------------------------------|
|------------------------|-----------------------------------|


   E E  E  E E  E E  E   E   E E  E  +Q    Q
|----------------------|---/12---10-(10)\------|
|-13---13-13---10---12-|-----------------------|
|----------------------|-----------------------|
|----------------------|-----------------------|
|----------------------|-----------------------|
|----------------------|-----------------------|
|
|-----------------------------------|
|  e e  e  e e  e e  e   e   e e  e   h
|----------------------|-----------------------|
|----------------------|-----------------------|
|----------------------|-----------------------|
|----------------------|-----------------------|
|--8-8--8--8-8--8-8--7-|-7---7-7-10------------|
|----------------------|-----------------------|
|
|  E E  E  E E  E E  E   E   E E  E  +Q    Q
|-12---12-12-----------|----17---15-(15)\------|
|--------------13---15-|-----------------------|
|----------------------|-----------------------|
|----------------------|-----------------------|
|----------------------|-----------------------|
|----------------------|-----------------------|


   Q.    Q.    Q    +H        +E   E S   S E
|-----------------|--------------------------|
|-------10-----9--|-(9)-------(9)-10-9h=10-9-|
|-/7--------------|--------------------------|
|-----------------|--------------------------|
|-----------------|--------------------------|
|-----------------|--------------------------|
|
| Gtr II
|  Q.    Q   E Q    +E  E E E  E   E Q
|-----------------|--------------------------|
|-----------------|--------------------------|
|-----------------|--------------------------|
|-----------------|--------------------------|
|--0-----4-----3--|-(3)-6-5-3----------------|
|--0-----4---0-3--|-(3)--------6---5-3/------|


                             |---3----|
   S Q..        Q   E  E    +H   H    H
|------------------------|----------------|
|------------------------|----------------|
|-10p9----------7---7--9-|--(9)--7--------|
|------------------------|-----------/8---|
|------------------------|----------------|
|------------------------|----------------|
|
|  Q      +Q    Q   E  E    +H     H
|------------------------|----------------|
|------------------------|----------------|
|------------------------|----------------|
|------------------10-10-|-(10)----8------|
|-12-----(12)\--0---8--8-|--(8)----8------|
|-12-----(12)\--0---8--8-|--(8)----8------|


  W                   +W
|-------------------|-------------------|
|-------------------|-------------------|
|-------------------|-------------------|
|-7-----------------|-(7)---------------|
|-------------------|-------------------|
|-------------------|-------------------|
|
| PM----------------------|   PM|     PM-
| e e e e s s e e e    e  e E e e E E e
|-------------------|-------------------|
|-------------------|-------------------|
|-------------------|-------------------|
|-------------------|-------5-----------|
|---8-5---8-7-5-7-4-|--5----------8-7---|
|-0-----0-----------|-----8---0-7-----8-|


  E E +H          +Q        H..                      a   E
|------------------------|---------------------------------|
|------------------------|---------------------------------|
|------------------------|---------------------------------|
|-7h8-(8)---------(8)/---|-14----------------------(14)s12-|
|------------------------|---------------------------------|
|------------------------|---------------------------------|
|
|-------------------------------|   PM                   PM
| e e  e  e s s e  e   e    e   e E E  a   e  E  E       E
|------------------------|---------------------------------|
|------------------------|---------------------------------|
|------------------------|---------------------------------|
|------------------------|--------5----------10------------|
|-5-8--5----8-7-5--7---4-|--5-------------------13---------|
|---------0--------------|------8---7-(7)s13------------12-|


  Q.    Q.    Q    +H.           +S   S  S  S
|----------------|----------------------10-12-|
|------10-----9--|-(9)-----------(9)-10-------|
|-7--------------|----------------------------|
|----------------|----------------------------|
|----------------|----------------------------|
|----------------|----------------------------|
|
| Q.    Q   E Q    +E  E E E E E  Q
|----------------|----------------------------|
|----------------|----------------------------|
|----------------|----------------------------|
|----------------|----------------------------|
|-0-----4-----3--|-(3)-6-5-3------------------|
|-0-----4---0-3--|-(3)-------6-5--3/----------|


   H          E  E  Q       +W
|-13---------12----17----|-(17)---------|
|---------------15-------|--------------|
|------------------------|--------------|
|------------------------|--------------|
|------------------------|--------------|
|------------------------|--------------|
|
|  Q   +Q     Q     E  E    +H      H
|------------------------|--------------|
|------------------------|--------------|
|------------------------|--------------|
|------------------10-10-|-(10)----10---|
|-12--(12)\---0-----8--8-|--(8)-----8---|
|-12--(12)\---0-----8--8-|--(8)-----8---|


   E  E  E  E  E    E  E  E    E  E  E  E  E  E  E  E
|-17-13------------------13-|-15----15-15-20-17-15----|
|-------15------------15----|----15----------------15-|
|----------14------14-------|-------------------------|
|-------------15------------|-------------------------|
|---------------------------|-------------------------|
|---------------------------|-------------------------|
|
| Gtr III
|  E  E  E  E  E    E  E  E    E  E  E  E  E  E  E  E
|-13-10------------------10-|-10----10-10-12----------|
|-------10------------10----|----11----------13-11-11-|
|----------10------10-------|-------------------------|
|-------------12------------|-------------------------|
|---------------------------|-------------------------|
|---------------------------|-------------------------|
|
| Gtr II
|  PM----------------------------|         PM       PM-
|  e  e  e  e  s s  e  e  e    e  e  E  E  e  E  E  e
|---------------------------|-------------------------|
|---------------------------|-------------------------|
|---------------------------|-------------------------|
|---------------------------|--------5--5-------------|
|-----8--5-----8-7--5--7--4-|--5--------------8--7----|
|--0--------0---------------|-----8--------7--------8-|


   E  E  E  E  E      E  E  E    W
|-17-13-----------------12-13-|---------------|
|-------15--------------------|---------------|
|----------14--------14-------|---------------|
|-------------15--------------|---------------|
|-----------------------------|---------------|
|-----------------------------|---------------|
|
|  E  E  E  E  E      E  E  E    W
|-13-10-----------------------|---------------|
|-------10--------------------|---------------|
|----------10--------10-12-14-|---------------|
|-------------12--------------|---------------|
|-----------------------------|---------------|
|-----------------------------|---------------|
|
|--------------------------|
|  e  e  e  e  s s s  s  e  e    E E E E E Q.
|-----------------------------|---------------|
|-----------------------------|---------------|
|-----------------------------|---------------|
|-----------------------------|---------------|
|--5--8--5-----8-7-5--5--7--4-|-10-7---5---5--|
|-----------0-----------------|--8-7---5---3--|


  Gtr II
  PM------------|                PM----------|
  e e e e e e e e   +W           e e e e e e e E     H     H
|-----------------|------------|-----------------|--------------|
|-----------------|------------|-----------------|--------------|
|-------6---------|------------|-------6---------|--------------|
|-----9---9-------|------------|-----9---9-------|--------------|
|-0-7-------7-0-8-|-(8)--------|-0-7-------7-0---|-/14----12----|
|-----------------|------------|-----------------|-/12----10----|


  PM------------|
  e e e e e e e e   +W
|-----------------|----------------|
|-----------------|----------------|
|-------6---------|----------------|
|-----9---9-------|----------------|
|-0-7-------7-0-8-|-(8)------------|
|-----------------|----------------|
|
| Gtr II
| W                  H.      E S S
|-----------------|----------------|
|-----------------|----------------|
|-----------------|------------5-7-|
|-----------------|----------7-----|
|-----------------|----------------|
|-----------------|----------------|


         PM                      PM
  Q.     e  E  Q      E    +Q.   e E Q.
|-----------------------|---------------------|
|-----------------------|---------------------|
|-----------------------|---------------------|
|-----------------------|---------------------|
|-8---------8-10\-----3-|--(3)-----3-5--------|
|-8------8--8-10\-----3-|--(3)---3-3-5--------|
|
| Q    E E  Q      E  E    +H.           +Q
|-----------------------|---------------------|
|--------------------13-|-(13)----------(13)\-|
|-9---10-7-/9-----10----|---------------------|
|-----------------------|---------------------|
|-----------------------|---------------------|
|-----------------------|---------------------|


  PM------------|                PM----------|
  e e e e e e e e   +W           e e e e e e e E     H     H
|-----------------|------------|-----------------|--------------|
|-----------------|------------|-----------------|--------------|
|-------6---------|------------|-------6---------|--------------|
|-----9---9-------|------------|-----9---9-------|--------------|
|-0-7-------7-0-8-|-(8)--------|-0-7-------7-0---|-/14----12----|
|-----------------|------------|-----------------|-/12----10----|


  PM------------|
  e e e e e e e e   +W            E  E  E  E E E E E   E E E E E E  Q
|-----------------|------------|-12-------10-----8---|-------8-7---10--|
|-----------------|------------|----10-------8-----6-|---5h6-----8-----|
|-------6---------|------------|-------10------9-----|-7---------------|
|-----9---9-------|------------|---------------------|-----------------|
|-0-7-------7-0-8-|-(8)--------|---------------------|-----------------|
|-----------------|------------|---------------------|-----------------|


        PM    PM
  Q   E e E E e E   +E  E E E E E E E
|-----------------|-------------------|
|-----------------|-------------------|
|-----------------|-------------------|
|-----------------|-------------------|
|-0--10---6h7---3-|-(3)-------5-3-----|
|-0--10-0-6h7-0-3-|-(3)-0-3-4-----3-4-|


     PM--------------------|
  Q  s s s s s s s s s s s s   Q  E E  E  E Q
|----------------------------|-----------------|
|----------------------------|-----------------|
|----------------------------|-----------------|
|----------------------------|-----------------|
|-0--------------------------|-3------------9--|
|-0--7-5-3-0-7-5-3-0-7-5-3-0-|-3----0-/9-10----|


  Gtr I
   H.               +E   E    +H..              E
|--------------------------|----------------------|
|-13b15============(13)r13-|-(13)--------------12-|
|--------------------------|----------------------|
|--------------------------|----------------------|
|--------------------------|----------------------|
|--------------------------|----------------------|
|
| Gtr II
|            PM      PM
|  Q       E e E E   e   E    +E   E E E E E E  E
|--------------------------|----------------------|
|--------------------------|----------------------|
|--------------------------|----------------------|
|--------------------------|----------------------|
|--0------10---6h7-------3-|--(3)--------5-3------|
|--0------10-0-6h7---0---3-|--(3)--0-3-4-----3--4-|


                   |----3----|
   E  S  E    S  E E    E    E   Q         +E  E    E  E  +H
|----------------------------------------|--------------------------|
|-13-12-10-------------------------------|------------13-(13)-------|
|------------12-10-9---------------------|--------/14---------------|
|----------------------12---10---9-------|-(9)----------------------|
|----------------------------------------|--------------------------|
|----------------------------------------|--------------------------|
|
|  PM|           PM--------------------|
|  e  e    E     e s s    s    s s s s s    Q       E  E   E   E Q
|----------------------------------------|--------------------------|
|----------------------------------------|--------------------------|
|----------------------------------------|--------------------------|
|----------------------------------------|--------------------------|
|--0--0----------------------------------|--3--------------------9--|
|--0--0----------0-7-5----3----0-7-5-3-0-|--3----------0--/9--10----|


   |----9----|  |-----9-----|  |----9-----|  |-----9-----|                            |---3----|
   Q.  S  S  S  Q.    S  S  S  Q.   S  S  S  Q.    S  S  S    H            +E   +E   +E   E    E
|-19--17-15-13-20----17-15-13-19---17-15-13-20----17-15-13-|-20b22========(20)r(20)-(20)-20---17-|
|----------------------------------------------------------|-------------------------------------|
|----------------------------------------------------------|-------------------------------------|
|----------------------------------------------------------|-------------------------------------|
|----------------------------------------------------------|-------------------------------------|
|----------------------------------------------------------|-------------------------------------|
|
|                  PM                        PM
|  Q            E  e           E E           e  E            +E     E E E   E    E    E     E
|----------------------------------------------------------|-------------------------------------|
|----------------------------------------------------------|-------------------------------------|
|----------------------------------------------------------|-------------------------------------|
|----------------------------------------------------------|-------------------------------------|
|--0-----------10--------------6h7--------------3----------|-(3)------------5----3---------------|
|--0-----------10--0-----------6h7-----------0--3----------|-(3)----0-3-4-------------3-----4----|


             |----3-----|  |-3--|             |---3---|      |3-|
   Q        +E   +E     E  E    Q            +Q       E      E  Q  +H.
|---------------------------------------------------------|-------------------------|
|-15b17====(15)r(15)---15-15------------------------------|-------------------------|
|------------------------------14b15.5======(14)r====14---|-------------------------|
|---------------------------------------------------------|-15----------------------|
|---------------------------------------------------------|----17-(17)--------------|
|---------------------------------------------------------|-------------------------|
|
|  PM----|           PM---------------------------------|
|  e     e   E       e     s s          s s   s  s s    s    Q      E  E  E  E Q
|---------------------------------------------------------|-------------------------|
|---------------------------------------------------------|-------------------------|
|---------------------------------------------------------|-------------------------|
|---------------------------------------------------------|-------------------------|
|--0-----0------------------------------------------------|--3-----------------9----|
|--0-----0-----------0-----7-5----------3-0---7--5-3----0-|--3---------0-/9-10------|


                                              |--3--|
   E  E  E  E E  E  E  E    E  E  E  E  E  E  S  S  S  E
|------------------------|-------------------------------|
|------------------------|----------------17-15-17-15-13-|
|----------17------------|-21----------14----------------|
|-------15------------19-|----------17-------------------|
|----12------------15----|-------15----------------------|
|-12------------15-------|-------------------------------|
|
|           PM      PM
|  Q     E  e E  E  e  E   +E  E  E  E  E  E  E        E
|------------------------|-------------------------------|
|------------------------|-------------------------------|
|------------------------|-------------------------------|
|------------------------|-------------------------------|
|--0----10----6h=7-----3-|-(3)----------5--3-------------|
|--0----10--0-6h=7--0--3-|-(3)-0--3--4--------3--------4-|


                                         |---3---|
   E  E  E  E E    E    E    E      E E  E  E    E  E  E  E  E
|--------------------------------|-----------------20-19-17-----|
|-------17-18--------------------|-22-----------17----------20--|
|----------------------17---19---|---------19-------------------|
|----19--------------------------|------17----------------------|
|-17--------------20-------------|------------------------------|
|--------------------------------|------------------------------|
|
|  PM|      PM-----------------|
|  e  e  E  e s s  s s  s s  s s    Q    E    E     E  E  Q
|--------------------------------|------------------------------|
|--------------------------------|------------------------------|
|--------------------------------|------------------------------|
|--------------------------------|------------------------------|
|--0--0--------------------------|--3---------------------9-----|
|--0--0-----0-7-5--3-0--7-5--3-0-|--3---------0----/9-10--------|


   Q.        Q      +S   +S   E  E    E    a   E  E  E  E  E  E  E
|-20b22-----20b22==(20)r(20)-20-17-|-19--(19)s15-------------------|
|----------------------------------|-------------------------17-15-|
|----------------------------------|-------------17----------------|
|----------------------------------|----------------15----17-------|
|----------------------------------|-------------------15----------|
|----------------------------------|-------------------------------|
|
|            PM               PM
|  Q      E  e       E    E   e  E   +E    E   E  E  E  E  E  E
|----------------------------------|-------------------------------|
|----------------------------------|-------------------------------|
|----------------------------------|-------------------------------|
|----------------------------------|-------------------------------|
|--0-----10----------6h===7------3-|-(3)-------------5--3----------|
|--0-----10--0-------6h===7---0--3-|-(3)---0---3--4--------3--4----|


   +H.                +E   E         W
|--------------------------------|-----------------|
|-(15)---------------(15)\-------|-----------------|
|--------------------------------|-----------------|
|--------------------------------|-----------------|
|--------------------------------|-----------------|
|--------------------------------|-----------------|
|
|   PM-|   PM------------------|
|   e  e E e s s s s   s   s s s   Q   E E  E  E Q
|--------------------------------|-----------------|
|--------------------------------|-----------------|
|--------------------------------|-----------------|
|--------------------------------|-----------------|
|---0--0-------------------------|-3-------------9-|
|---0--0---0-7-5-3-0---7---5-3-0-|-3-----0-/9-10---|


                                             |---3---|
   H.                 E  E    +H.            E  E    E
|--------------------------|---------------------------|
|-13-----------------15----|-------------------13---15-|
|-----------------------14-|-(14)-----------14---------|
|--------------------------|---------------------------|
|--------------------------|---------------------------|
|--------------------------|---------------------------|
|
|  H.                 E  E    +H        H
|--------------------------|---------------------------|
|--------------------------|---------------------------|
|--------------------------|---------------------------|
|--------------------------|------------5--------------|
|-/8------------------8--5-|--(5)-------3--------------|
|--------------------------|---------------------------|
|
| Gtr III
|  E   E  E  E  E  E  E  E     E  E E E E E  E    E
|--------------------------|---------------------------|
|-10--10-10-10-10-10-10--7-|---7--7-7-7-5-5--5----5----|
|-12--12-12-12-12-12-12--9-|---9--9-9-9-7-7--7----7----|
|-10--10-10-10-10-10-10--7-|---7--7-7-7-5-5--5----5----|
|--------------------------|---------------------------|
|--------------------------|---------------------------|


   H         E  E  E  E    +Q     E  E  +H
|-----------------------|---------------------------|
|-17--------15----------|---------------------------|
|--------------17-14----|---------------------------|
|--------------------16-|-(16)---14-12-(12)---------|
|-----------------------|---------------------------|
|-----------------------|---------------------------|
|
|  H.              E  E    +H            H
|-----------------------|---------------------------|
|-----------------------|---------------------------|
|-----------------------|---------------------------|
|-----------------------|---------------------------|
|--3---------------5--0-|--(0)-----------2----------|
|--3---------------5--0-|--(0)-----------2----------|
|
|  E  E E E  E  E  E  E     E  E  E  E   E  E E E
|-----------------------|---------------------------|
|-----------------------|---------------------------|
|--5--5-5-5--5--5--7--2-|---2--2--2--2---4--4-4-4---|
|--7--7-7-7--5--5--5--4-|---4--4--4--4---5--5-5-5---|
|--8--8-8-8--8--8-10--5-|---5--5--5--5---7--7-7-7---|
|-----------------------|---------------------------|


    H.                  E  E    +H.                  E  S  S
|----------------------------|-------------------------------|
|----------------------------|-------------------------------|
|----------------------------|-------------------------10-12-|
|-/10------------------12----|---------------------/12-------|
|-------------------------12-|-(12)--------------------------|
|----------------------------|-------------------------------|
|
|   H..                    E    +W
|----------------------------|-------------------------------|
|----------------------------|-------------------------------|
|----------------------------|-------------------------------|
|----------------------------|-------------------------------|
|--/8----------------------5-|--(5)--------------------------|
|----------------------------|-------------------------------|
|
|   E    E  E  E  E  E  E  E     E   E  E  E  E  E   E  E
|--/7----7--7--7--5--5--5----|-------------------------------|
|--/8----8--8--8--8--8--8--8-|---8---8--8--8--7--7---7--7----|
|-/10---10-10-10-10-10-10--9-|---9---9--9--9--9--9---9--9----|
|-------------------------12-|--12--12-12-12-12-12--12-12----|
|----------------------------|-------------------------------|
|----------------------------|-------------------------------|


   H.               E  E    +W
|------------------------|---------------------------|
|------------------15----|---------------------------|
|-14------------------14-|-(14)----------------------|
|------------------------|---------------------------|
|------------------------|---------------------------|
|------------------------|---------------------------|
|
|  W                         W
|------------------------|---------------------------|
|------------------------|---------------------------|
|------------------------|---------------------------|
|------------------------|---------------------------|
|------------------------|---------------------------|
|------------------------|---------------------------|
|
|  E   E  E  E E E  E  E     E   E  E  E  E  E  E  E
|------------------------|---------------------------|
|------------------------|---------------------------|
|--5---5--5--5-5-5--5--5-|--/7---7--7--7--7--7--7--7-|
|--9---9--9--9-7-7--7--7-|-/10--10-10-10--9--9--9--9-|
|-10--10-10-10-8-8--8--8-|--12--12-12-12-10-10-10-10-|
|------------------------|---------------------------|


  H.=H
   H.       E  E    +H      +E   E  E  E
|----------------|-----------------------|
|-15----------13-|-(13)----(13)----------|
|----------14----|--------------12-14-15-|
|----------------|-----------------------|
|----------------|-----------------------|
|----------------|-----------------------|
|
| Gtr VI
|  W                 W
|----------------|-----------------------|
|----------------|-----------------------|
|----------------|-----------------------|
|----------------|-----------------------|
|----------------|-----------------------|
|----------------|-----------------------|


   +H      Q   e  a  E    +W
|----------------13h15-|-(15)--------------|
|---------13--15-------|-------------------|
|-(15)-----------------|-------------------|
|----------------------|-------------------|
|----------------------|-------------------|
|----------------------|-------------------|
|
|   W                           H.   E  E
|----------------------|-------------------|
|----------------------|-------------------|
|----------------------|-------------------|
|----------------------|---------------17--|
|----------------------|------------19-----|
|----------------------|-------------------|


  Q=185
  Gtr VI
     Q   E  E   H      H     E  E  Q    Q.    Q   E  Q    +H    Q   Q
|--------------------|---------------|-----------------|---------------|
|--------------------|---------------|-----------15----|---------------|
|---14-----16--------|------------14-|-16----17-----16-|-(16)----------|
|-------17-----------|---------17----|-----------------|-------17------|
|--------------------|------19-------|-----------------|-----------19--|
|--------------------|---------------|-----------------|---------------|


   Q.    Q Q.      W           E  E  E  E  +H       E  E  E  E  +H
|----------------|----------|-12-----------------|-10------------------|
|----------------|----------|----15--------------|----13---------------|
|-14----12-------|----------|-------17-----------|-------15------------|
|----------------|----------|----------17-(17)---|----------15-(15)----|
|----------------|----------|--------------------|---------------------|
|----------------|----------|--------------------|---------------------|


   Q   E  E  +Q   Q    H   E  E  Q    Q.   Q   E  Q    +H   Q   Q
|--------------------|-------------|----------15-19-|-(19)-20--22----|
|-12-----13-(13)-----|-------12-13-|------17--------|----------------|
|-----14-------------|----14-------|-19-------------|----------------|
|--------------------|-------------|----------------|----------------|
|--------------------|-------------|----------------|----------------|
|--------------------|-------------|----------------|----------------|


   Q.    Q  Q.     W           E  E  E  E  +H        E  E  E  E  +H
|-19----17-------|----------|-12------------------|-10------------------|
|----------------|----------|----15---------------|----13---------------|
|----------------|----------|-------17------------|-------15------------|
|----------------|----------|----------17-(17)----|----------15-(15)----|
|----------------|----------|---------------------|---------------------|
|----------------|----------|---------------------|---------------------|


   Q.    Q.    Q     +H.       E  E    Q.    Q.    Q     +H      Q   Q
|-17----------15--|-(15)------------|-----------------|-----------------|
|-------17--------|-----------15-17-|-18--------------|-----------------|
|-----------------|-----------------|-------17----16--|-(16)----14--17--|
|-----------------|-----------------|-----------------|-----------------|
|-----------------|-----------------|-----------------|-----------------|
|-----------------|-----------------|-----------------|-----------------|


   Q.    Q.    Q     +H.       Q     H.      Q    E  E  E  E  E  E  Q
|-----------------|---------------|-------------|---13-----------------|
|-----------------|---------------|-------------|------14--------------|
|-16----14--------|---------------|-------------|---------13-12--------|
|-------------14--|-(14)------12--|-14----------|---------------15-14--|
|-----------------|---------------|-------------|----------------------|
|-----------------|---------------|-------------|----------------------|


   Q.    Q.    Q     +H.       E  E    Q.    Q.    Q     +H      Q   Q
|-17----------15--|-(15)------------|-----------------|-----------------|
|-------17--------|-----------15-17-|-18--------------|-----------------|
|-----------------|-----------------|-------17----16--|-(16)----14--17--|
|-----------------|-----------------|-----------------|-----------------|
|-----------------|-----------------|-----------------|-----------------|
|-----------------|-----------------|-----------------|-----------------|


   Q.    Q.    Q     +H.       Q
|-----------------|---------------|
|-----------------|---------------|
|-16----14--------|---------------|
|-------------14--|-(14)------12--|
|-----------------|---------------|
|-----------------|---------------|


   E  E  E  E  E  E E  E    E  E  E  E E  E Q
|------------------------|---------------20----|
|---------------------17-|-18----17-21---------|
|-16-17-------17-19------|----18---------------|
|-------19-18------------|---------------------|
|------------------------|---------------------|
|------------------------|---------------------|


  W            W           +W            +W
|----------|-^22--------|-(22)--------|-(22)----*|
|----------|-^24--------|-(24)--------|-(24)----*|
|----------|-^24--------|-(24)--------|-(24)----*|
|----------|------------|-------------|---------*|
|----------|------------|-------------|---------*|
|----------|------------|-------------|---------*|



Duration Legend
---------------
W - whole; H - half; Q - quarter; E - 8th; S - 16th; T - 32nd; X - 64th; a - acciaccatura
+ - note tied to previous; . - note dotted; .. - note double dotted
Uncapitalized letters represent notes that are staccato (1/2 duration)
Irregular groupings are notated above the duration line
Duration letters will always appear directly above the note/fret number it represents the
duration for.  Duration letters with no fret number below them represent rests.  Multi-
bar rests are notated in the form Wxn, where n is the number of bars to rest for.  Low
melody durations appear below the staff

Tablature Legend
----------------
 h   - hammer-on
 p   - pull-off
 b   - bend
 pb  - pre-bend
 r   - bend release (if no number after the r, then release immediately)
 /\  - slide into or out of (from/to "nowhere")
 s   - legato slide
 S   - shift slide
 - natural harmonic
[n]  - artificial harmonic
n(n) - tapped harmonic
 ~   - vibrato
 tr  - trill
 T   - tap
 TP  - trem. picking
 PM  - palm muting
\n/  - tremolo bar dip; n = amount to dip
 \n  - tremolo bar down
 n/  - tremolo bar up
/n\  - tremolo bar inverted dip
 =   - hold bend; also acts as connecting device for hammers/pulls
 <> - volume swell (louder/softer)
 x   - on rhythm slash represents muted slash
Добавлено: 15.04.2012
Другие материалы по этой песне:

Страница создана 23.02.2012
http://primanota.ru/an-endless-sporadic/the-adventures-of-jabubu-chords.htm
Привет, Гость.
Предлагаем пройти революционный курс по гитаре.
Подарок от PrimaNota.Ru, забирай!