PrimaNota.ru - самый крупный в мире бесплатный архив песенных текстов, аккордов, табулатур и нот


An Endless Sporadic - From The Blue - таба, видео

Регистрация Запомнить меня
Войти через:  Facebook Google Twitter Vk Yandex Mail.ru

An Endless Sporadic - From The Blue - таба, видео

Печатать
Просмотров: 98
               From The Blue


              An Endless Sporadic

thanks to neutralist for the original GP5 tab

this is the rhythm guitar part and the solo is separate form the rest of the song at the bottom

E||------------------------------------------|
B||------------------------------------------|
G||------------------------------------------|
D||------------------------------------------|
A||------------------------------------------|
E||------------------------------------------|


-------|-------|-------|-------|-------|
-------|-------|-------|-------|-------|
-------|-------|-------|-------|-------|
-------|-------|-------|-------|-------|
-------|-------|-------|-------|-------|
-------|-------|-------|-------|-------|


-------|-------|-------|-------|-------|
-------|-------|-------|-------|-------|
-------|-------|-------|-------|-------|
-------|-------|-------|-------|-------|
-------|-------|-------|-------|-------|
-------|-------|-------|-------|-------|


-------|-------|-------|-------|-------|
-------|-------|-------|-------|-------|
-------|-------|-------|-------|-------|
-------|-------|-------|-------|-------|
-------|-------|-------|-------|-------|
-------|-------|-------|-------|-------|


          H        Q    E  E
-------|----------------------|
-------|----------------------|
-------|--8--------L----L-----|
-------|--8--------L----L-----|
-------|--6--------L----L-----|
-------|----------------------|


  Q    Q    E  S  S Q
-------------------------|
-------------------------|
-----------------10-L----|
-----------------10-L----|
------------------8-L----|
-------------------------|


  H        Q    Q
---------------------|-------|-------|
---------------------|-------|-------|
--L--------L---------|-------|-------|
--L--------L---------|-------|-------|
--L--------L---------|-------|-------|
---------------------|-------|-------|


-------|-------|-------|-------|-------|
-------|-------|-------|-------|-------|
-------|-------|-------|-------|-------|
-------|-------|-------|-------|-------|
-------|-------|-------|-------|-------|
-------|-------|-------|-------|-------|


          Q    E  E  H
-------|----------------------|
-------|--3-------3--L--------|
-------|--3-------3--L--------|
-------|--3-------3--L--------|
-------|--1-------1--L--------|
-------|----------------------|


  Q    E  E  H           W
----------------------|-------------------|
--3-------3--L--------|--6----------------|
--3-------3--L--------|--6----------------|
--3-------3--L--------|--6----------------|
--1-------1--L--------|--4----------------|
----------------------|-------------------|


  W                   Q    E  E  H
-------------------|----------------------|
--9----------------|--3-------3--L--------|
--9----------------|--3-------3--L--------|
--9----------------|--3-------3--L--------|
--9----------------|--1-------1--L--------|
-------------------|----------------------|


  Q    E  E  H           W
----------------------|-------------------|
--3-------3--L--------|--6----------------|
--3-------3--L--------|--6----------------|
--3-------3--L--------|--6----------------|
--1-------1--L--------|--4----------------|
----------------------|-------------------|


  W
-------------------|
--9----------------|
--9----------------|
--9----------------|
--9----------------|
-------------------|


  Q    E  E  Q       Q
--------------------------|
--------------------------|
--8-------6-------6g10----|
--------------------------|
--------------------------|
--------------------------|


  H         Q    E  E
------------------------|-------|-------|
------------------------|-------|-------|
--L~--------L----L--L\--|-------|-------|
------------------------|-------|-------|
------------------------|-------|-------|
------------------------|-------|-------|


-------|-------|-------|-------|-------|
-------|-------|-------|-------|-------|
-------|-------|-------|-------|-------|
-------|-------|-------|-------|-------|
-------|-------|-------|-------|-------|
-------|-------|-------|-------|-------|


-------|
-------|
-------|
-------|
-------|
-------|


   S S S S  S S E   E  S S S  S S  S
-------------------------------------|
-------8------------------------8-10-|
--10-9---9-10-7-L~--L--L-7-9-10------|
-------------------------------------|
-------------------------------------|
-------------------------------------|


  S  S S S  S S E   E  S S S  S S S
------------------------------------|
--8---------------------------------|
----10-9-7---------------9-7--------|
-----------10-8-L~--L--L-----10-8-6-|
------------------------------------|
------------------------------------|


  Q     S S S S  Q     S S S S
-------------------------------|
-------------------------------|
-------------------------------|
------------6-8-10~----L-8-6---|
--9~----L-9------------------9-|
-------------------------------|


  S S S S Q     Q    Q
--------------------------|
--------------------------|
--------------------------|
--------------------------|
--8-9-7-8-L~----L---------|
--------------------------|


   S S S S  S S E   E  S S S  S S  S
-------------------------------------|
-------8------------------------8-10-|
--10-9---9-10-7-L~--L--L-7-9-10------|
-------------------------------------|
-------------------------------------|
-------------------------------------|


  S  S S S  S S E   E  S S S  S S S
------------------------------------|
--8---------------------------------|
----10-9-7---------------9-7--------|
-----------10-8-L~--L--L-----10-8-6-|
------------------------------------|
------------------------------------|


  Q     S S S S  Q     S  S  S S
---------------------------------|
---------------------------------|
-------------------------------8-|
------------6-8-10~----L-10-11---|
--9~----L-9----------------------|
---------------------------------|


  E  S S E     E   Q    E   E
-------------------------------|-------|
-------------------------------|-------|
--8--L-6-L--6g10~--L----L\-----|-------|
-------------------------------|-------|
-------------------------------|-------|
-------------------------------|-------|


          PM   PM    PM  PM  PMPM PM
          E  S S  E  E   E   S S  S   S S S
-------|------------------------------------|
-------|----------------13------------------|
-------|--7----------9------------------7-9-|
-------|-------8---------------7--8--10-----|
-------|--------------------10--------------|
-------|------------------------------------|


   S S S S  S S E   E  S S S  S S  S
-------------------------------------|
-------8------------------------8-10-|
--10-9---9-10-7-L~--L--L-7-9-10------|
-------------------------------------|
-------------------------------------|
-------------------------------------|


  S  S S S  S S E   E  S S S  S S S
------------------------------------|
--8---------------------------------|
----10-9-7---------------9-7--------|
-----------10-8-L~--L--L-----10-8-6-|
------------------------------------|
------------------------------------|


  Q     S S S S  Q     S S S S
-------------------------------|
-------------------------------|
-------------------------------|
------------6-8-10~----L-8-6---|
--9~----L-9------------------9-|
-------------------------------|


  S S S S Q     Q    Q
--------------------------|
--------------------------|
--------------------------|
--------------------------|
--8-9-7-8-L~----L---------|
--------------------------|


   S S S S  S S E   E  S S S  S S  S
-------------------------------------|
-------8------------------------8-10-|
--10-9---9-10-7-L~--L--L-7-9-10------|
-------------------------------------|
-------------------------------------|
-------------------------------------|


  S  S S S  S S E   E  S S S  S S S
------------------------------------|
--8---------------------------------|
----10-9-7---------------9-7--------|
-----------10-8-L~--L--L-----10-8-6-|
------------------------------------|
------------------------------------|


  Q     S S S S  Q     S  S  S S
---------------------------------|
---------------------------------|
-------------------------------8-|
------------6-8-10~----L-10-11---|
--9~----L-9----------------------|
---------------------------------|


  E  S S E     E   H
----------------------------|
----------------------------|
--8--L-6-L--6g10~--L--------|
----------------------------|
----------------------------|
----------------------------|


   S S S S  S S E   E  S S S  S S  S
-------------------------------------|
-------8------------------------8-10-|
--10-9---9-10-7-L~--L--L-7-9-10------|
-------------------------------------|
-------------------------------------|
-------------------------------------|


  S  S S S  S S E   E  S S S  S S S
------------------------------------|
--8---------------------------------|
----10-9-7---------------9-7--------|
-----------10-8-L~--L--L-----10-8-6-|
------------------------------------|
------------------------------------|


  Q     S S S S  Q     S S S S
-------------------------------|
-------------------------------|
-------------------------------|
------------6-8-10~----L-8-6---|
--9~----L-9------------------9-|
-------------------------------|


  S S S S Q     Q    Q
--------------------------|
--------------------------|
--------------------------|
--------------------------|
--8-9-7-8-L~----L---------|
--------------------------|


   S S S S  S S E   E  S S S  S S  S
-------------------------------------|
-------8------------------------8-10-|
--10-9---9-10-7-L~--L--L-7-9-10------|
-------------------------------------|
-------------------------------------|
-------------------------------------|


  S  S S S  S S E   E  S S S  S S S
------------------------------------|
--8---------------------------------|
----10-9-7---------------9-7--------|
-----------10-8-L~--L--L-----10-8-6-|
------------------------------------|
------------------------------------|


  Q     S S S S  Q     S  S  S S
---------------------------------|
---------------------------------|
-------------------------------8-|
------------6-8-10~----L-10-11---|
--9~----L-9----------------------|
---------------------------------|


  E  S S E     E   H
----------------------------|
----------------------------|
--8--L-6-L--6g10~--L--------|
----------------------------|
----------------------------|
----------------------------|


  PM PM PM PM PM PM PM PM PM PM PM PM PM PM P
  S  S  S  S  S  S  S  S  S  S  S  S  S  S  S
----------------------------------------------|
----------------------------------------------|
----------------------------------------------|
--8--6--4--6--8--6--4--6--8--6--4--6--8--6--4-|
----------------------------------------------|
----------------------------------------------|


    PM PM PM PM PM PM PM   PM PM PM PM PM PM
  S S  S  S  S  S  S  S  S S  S  S  S  S  S
---------------------------------------------|
---------------------------------------------|
---------------------------------------------|
----8--4--6--8--6--4--8----8--4--6--8--6--4--|
---------------------------------------------|
---------------------------------------------|


                      ^
  W                   W
-------------------|--0----------------|
-------------------|--1----------------|
-------------------|--3----------------|
-------------------|--3----------------|
--L----------------|-------------------|
-------------------|-------------------|


  W
--0----------------|
--1----------------|
--3----------------|
--3----------------|
-------------------|
-------------------|


                   |-3-|
  H        Q    E  S S S
--0--------L----L----x-x-|
--1--------L----L----x-x-|
--3--------L----L----x-x-|
--3--------L----L----x-x-|
-------------------------|
-------------------------|


  E  S S S S E  S S S S E  E
--0--L-0---x-0--L-0---x-0-----|
--1--L-1---x-1--L-1---x-1-----|
--3--L-3---x-3--L-3---x-3-----|
--3--L-3---x-3--L-3---x-3-----|
------------------------------|
------------------------------|


  PM PM PM   PM   PM PM PM PM PM PM PM
  E  S  S  S S  S S  E  S  S  E  S  S
---------------------------------------|
---------------------------------------|
--7--5--7----7----5--7--7--5--7--7--5--|
---------------------------------------|
---------------------------------------|
---------------------------------------|


  PM PM PM   PM   PM PM PM PM PM PM PM
  E  S  S  S S  S S  E  S  S  E  S  S
---------------------------------------|
---------------------------------------|
--7--5--7----7----5--7--7--5--7--7--5--|
---------------------------------------|
---------------------------------------|
---------------------------------------|


  PM PM PM   PM   PM PM PM PM PM PM PM
  E  S  S  S S  S S  E  S  S  E  S  S
---------------------------------------|
---------------------------------------|
--5--3--5----5----3--5--5--3--5--5--3--|
---------------------------------------|
---------------------------------------|
---------------------------------------|


  PM PM PM   PM   PM PM PM PM PM PM PM
  E  S  S  S S  S S  E  S  S  E  S  S
---------------------------------------|
---------------------------------------|
--5--3--5----5----3--5--5--3--5--5--5--|
---------------------------------------|
---------------------------------------|
---------------------------------------|


  PM PM PM   PM   PM PM PM PM PM PM PM
  E  S  S  S S  S S  E  S  S  E  S  S
---------------------------------------|
---------------------------------------|
---------------------------------------|
--8--6--8----8----6--8--8--6--8--8--6--|
---------------------------------------|
---------------------------------------|


  PM PM PM   PM   PM PM PM PM PM PM PM
  E  S  S  S S  S S  E  S  S  E  S  S
---------------------------------------|
---------------------------------------|
---------------------------------------|
--8--6--8----8----6--8--8--6--8--8--6--|
---------------------------------------|
---------------------------------------|


  PM PM PM   PM   PM PM PM PM PM PM PM
  E  S  S  S S  S S  E  S  S  E  S  S
---------------------------------------|
---------------------------------------|
---------------------------------------|
--8--6--8----8----6--8--8--6--8--8--6--|
---------------------------------------|
---------------------------------------|


  PM PM PM   PM   PM PM PM PM PM PM PM
  E  S  S  S S  S S  E  S  S  E  S  S
---------------------------------------|
---------------------------------------|
---------------------------------------|
--8--6--8----8----6--8--8--6--8--8--6--|
---------------------------------------|
---------------------------------------|


  PM PM PM   PM   PM PM PM PM PM PM PM
  E  S  S  S S  S S  E  S  S  E  S  S
---------------------------------------|
---------------------------------------|
--7--5--7----7----5--7--7--5--7--7--5--|
---------------------------------------|
---------------------------------------|
---------------------------------------|


  PM PM PM   PM   PM PM PM PM PM PM PM
  E  S  S  S S  S S  E  S  S  E  S  S
---------------------------------------|
---------------------------------------|
--7--5--7----7----5--7--7--5--7--7--5--|
---------------------------------------|
---------------------------------------|
---------------------------------------|


  PM PM PM   PM   PM PM PM PM PM PM PM
  E  S  S  S S  S S  E  S  S  E  S  S
---------------------------------------|
---------------------------------------|
--5--3--5----5----3--5--5--3--5--5--3--|
---------------------------------------|
---------------------------------------|
---------------------------------------|


  PM PM PM   PM   PM PM PM PM PM PM PM
  E  S  S  S S  S S  E  S  S  E  S  S
---------------------------------------|
---------------------------------------|
--5--3--5----5----3--5--5--3--5--5--5--|
---------------------------------------|
---------------------------------------|
---------------------------------------|


  PM PM PM   PM   PM PM PM PM PM PM PM
  E  S  S  S S  S S  E  S  S  E  S  S
---------------------------------------|
---------------------------------------|
---------------------------------------|
--8--6--8----8----6--8--8--6--8--8--6--|
---------------------------------------|
---------------------------------------|


  PM PM PM   PM   PM PM PM PM PM PM PM
  E  S  S  S S  S S  E  S  S  E  S  S
---------------------------------------|
---------------------------------------|
---------------------------------------|
--8--6--8----8----6--8--8--6--8--8--6--|
---------------------------------------|
---------------------------------------|


  PM PM PM   PM   PM PM PM PM PM PM PM
  E  S  S  S S  S S  E  S  S  E  S  S
---------------------------------------|
---------------------------------------|
---------------------------------------|
--8--6--8----8----6--8--8--6--8--8--6--|
---------------------------------------|
---------------------------------------|


  PM PM PM   PM   PM PM PM PM PM PM PM
  E  S  S  S S  S S  E  S  S  E  S  S
---------------------------------------|
---------------------------------------|
---------------------------------------|
--8--6--8----8----6--8--8--6--8--8--6--|
---------------------------------------|
---------------------------------------|


   PMPM PM PM  PMPM PM PM  PMPM PM PM  PMPM P
   S S  S  S   S S  S  S   S S  S  S   S S  S
----------------------------------------------|
--11-9--7--9--11-9--7--9--11-9--7--9--11-9--7-|
----------------------------------------------|
----------------------------------------------|
----------------------------------------------|
----------------------------------------------|


     PMPM PM  PMPM PM  PM   PMPM PM  PMPM PM
  S  S S  S   S S  S   S S  S S  S   S S  S
---------------------------------------------|
----11-7--9--11-9--7--11---11-7--9--11-9--7--|
---------------------------------------------|
---------------------------------------------|
---------------------------------------------|
---------------------------------------------|


    PM PM PM  PMPM PM  PM   PMPM PM  PMPM
  S S  S  S   S S  S   S S  S S  S   S S   E
---------------------------------------8-----|
--L-8--6--8--10-8--6--10---10-6--8--10----10-|
---------------------------------------------|
---------------------------------------------|
---------------------------------------------|
---------------------------------------------|


          PM  PM
  Q    E  S   S H
-------------------------|
--L----L--6--10-6--------|
-------------------------|
-------------------------|
-------------------------|
-------------------------|


   PMPM PM PM  PMPM PM PM  PMPM PM PM  PMPM P
   S S  S  S   S S  S  S   S S  S  S   S S  S
----------------------------------------------|
--11-9--7--9--11-9--7--9--11-9--7--9--11-9--7-|
----------------------------------------------|
----------------------------------------------|
----------------------------------------------|
----------------------------------------------|


     PMPM PM  PMPM PM  PM   PMPM PM  PMPM PM
  S  S S  S   S S  S   S S  S S  S   S S  E
---------------------------------------------|
----11-9--7--11-9--7--11---11-9--7--11-9--7--|
---------------------------------------------|
---------------------------------------------|
---------------------------------------------|
---------------------------------------------|


  PM
  E  E  Q    H
----------------------||
--6-------------------||
----------------------||
----------------------||
----------------------||
----------------------||

SOLO GUITAR


 Q    E  E  H
-----------------------|
-----------------------|
-----------------------|
-----------------------|
--/5----L--7--L--------|
-----------------------|


        |--3--|         |--3--|
  E  E  E  E  E  E  S S E  E  E
---------------------------------|
---------------------------------|
---------------------------------|
--------------7--5--L------------|
--L--5--L--7----------8-L--7--5--|
---------------------------------|


  Q    E  S  S H
------------------------|
------------------------|
------------------------|
------------------------|
--4----L--3p-1-1--------|
------------------------|


  E  S S E  E  H
------------------------|-------|-------|
------------------------|-------|-------|
------------------------|-------|-------|
------------------------|-------|-------|
------------------------|-------|-------|
--2----2----4--L--------|-------|-------|


-------|-------|-------|-------|
-------|-------|-------|-------|
-------|-------|-------|-------|
-------|-------|-------|-------|
-------|-------|-------|-------|
-------|-------|-------|-------|


                   |---3--|
  H        Q    E  S  S   S
----------------------------|
---------------------11h-13-|
----------------------------|
----------------------------|
----------------------------|
----------------------------|


   S   S E  E   E  E   E  Q
-------------------------------|
--15p-11-L--L------------------|
---------------10--L--10--L----|
-------------------------------|
-------------------------------|
-------------------------------|


                 |---3---|
  H         Q    E   E   E
----------------------------|
----------------------------|
--L~--------L----L\--8--10--|
----------------------------|
----------------------------|
----------------------------|


   S   S E  E    E  E    S   S Q
------------------------------------|
------------------------------------|
--10h-11-L--Lh--10--Lh--11p-10-8----|
------------------------------------|
------------------------------------|
------------------------------------|


                 |---3---|
  H         Q    E   E   E
----------------------------|
----------------------------|
--L~--------L----L----------|
--------------------11--10--|
----------------------------|
----------------------------|


  Q    E   E  E  E  E   E
---------------------------|
-----------------6---------|
---------------------------|
--8----LS--6--L-----6s--4--|
---------------------------|
---------------------------|


  E  E  Q    E  E  E  E
-------------------------|
-----4--L----L-----------|
-------------------------|
--L--L--L----L--4--L--4--|
-------------------------|
-------------------------|


  Q    S S  E  H
------------------------|
------------------------|
------------------------|
--2----L-2h-3--L--------|
------------------------|
------------------------|


       |--3--|  |--3--|  |--3--|  |--3--|  |-
  S  S S  S  S  S  S  S  S  S  S  S  S  S  S
----------------------------------------------|
----------------------------------------------|
----------------------------------------------|
--0h-2-Lh-0h-2p-0h-2p-0h-2p-0h-2p-0h-2p-0h-2--|p
----------------------------------------------|
----------------------------------------------|


   Q      E   E  S  S E  Q
------------------------------|
--10br----L-------------------|
-------------10--L-10-L--L----|
------------------------------|
------------------------------|
------------------------------|


            |---3---|            |---3---|
  E  E      E   E   E   E  S  S  E   E   E
-------------------10--12--L-13--L--12--10--|
---------------11---------------------------|
--L--L\--7g10-------------------------------|
--------------------------------------------|
--------------------------------------------|
--------------------------------------------|


      Q    S  S E   Q    Q
--12g14----L-------14----L~----|
-------------13-L---L----L~----|
-------------------------------|
-------------------------------|
-------------------------------|
-------------------------------|


               |-3-|
  Q    E   E   E   Q    E   E
--L----L---L\--L--/8-------14--|
--L----L-----------------------|
-------------------------------|
-------------------------------|
-------------------------------|
-------------------------------|


   |---3---|   |--3--|  |---3---|   |---3---|
   E   E   E   E  E  E  E   E   E   E   E   E
--13-----------------------------------13--11-|
------14---------------------------14---------|
----------11--10-----------10--11-------------|
------------------8-----8---------------------|
---------------------9------------------------|
----------------------------------------------|


   |---3---|   |---3---|
   E   E   E   E   E   E   Q      E   E
-------------------------------------------|
--14--13--11------11--13--11br----L--11br--|
--------------13---------------------------|
-------------------------------------------|
-------------------------------------------|
-------------------------------------------|


  Q     Q      E   E    Q
-----------------------------|
--L----13br----L--15br--L----|
-----------------------------|
-----------------------------|
-----------------------------|
-----------------------------|


   H         Q      E  E
---------------------------|-------|-------|
--17b--------Lbr----L--L\--|-------|-------|
---------------------------|-------|-------|
---------------------------|-------|-------|
---------------------------|-------|-------|
---------------------------|-------|-------|


Duration Legend
---------------
W - whole
H - half
Q - quarter
E - 8th
S - 16th
T - 32nd
X - 64th
. - note dotted
|-n-|  - n-tuplets


Tablature Legend
----------------
L - tied note
x - dead note
g - grace note
(n) - ghost note
> - accentuded note
NH - natural harmonic
AH - artificial harmonic
TH - tapped harmonic
SH - semi harmonic
PH - pitch harmonic
h - hammer on
p - pull off
b - bend
br - bendRelease
pb - preBend
pbr - preBendRelease
brb - bendReleaseBend
\n/ - tremolo bar dip
\n - tremolo bar dive
-/n - tremolo bar Release up
/n\ - tremolo bar inverted dip
/n - tremolo bar return
-\n - tremolo bar Release down
S - shift slide
s - legato slide
/ -  slide into from below or out of upwards
\ -  slide into from above or out of downwards
~ - vibrato
W - wide vibrato
tr - trill
TP - tremolo picking
T - tapping
S - slap
P - pop
< - fade in
^ - brush up
v - brush down
Добавлено: 13.04.2012
Другие материалы по этой песне:

Страница создана 13.04.2012
http://primanota.ru/an-endless-sporadic/from-the-blue-chords.htm
Привет, Гость.
Предлагаем пройти революционный курс по гитаре.
Подарок от PrimaNota.Ru, забирай!