PrimaNota.ru - самый крупный в мире бесплатный архив песенных текстов, аккордов, табулатур и нот


An Cafe - Smile Ichiban II Onna - текст песни, таба, бас-таба, видео

Регистрация Запомнить меня
Войти через:  Facebook Google Twitter Vk Yandex Mail.ru

An Cafe - Smile Ichiban II Onna - текст песни, таба, бас-таба, видео

Печатать
Просмотров: 284
e|-----------------------------------------------------------------|
B|-----------------------------------------------------------------|
G|---------------------------------10-8-7-8-7----------------------|
D|--8-7-8-10-10-10-12-10-10-10-8-10------------8-------------------|
A|-----------------------------------------------------------------|
E|-----------------------------------------------------------------|

e|-----------------------------------------------------------------|
B|-----------------------------------------------------------------|
G|------------------------------------10-8-7-8-7-------------------|
D|--8-8-7-8-10-10-10-12-10--10-10-8-8-------------8----------------|
A|-----------------------------------------------------------------|
E|-----------------------------------------------------------------|

e|---------------------------------14-12-11-12-11------------------|
B|-12-11--14-14-14-16-14--14-14-12----------------12---------------|
G|-----------------------------------------------------------------|
D|-----------------------------------------------------------------|
A|-----------------------------------------------------------------|
E|-----------------------------------------------------------------|

e|-----------------------------------------------------------------|
B|-12-12-11-12-14-14-14-16-14--------------------------------------|
G|-----------------------------------------------------------------|
D|-----------------------------------------------------------------|
A|-----------------------------------------------------------------|
E|-----------------------------------------------------------------|

e|-----------------------------------------------------------------|
B|-12-11-12-14-16-14-17-19-17-16-14-12-11-12-14--------------------|
G|-----------------------------------------------------------------|
D|-----------------------------------------------------------------|
A|-----------------------------------------------------------------|
E|-----------------------------------------------------------------|(x2)                    

e|-------------------------------------------16--------------------|
B|-12-11-12-14-16-14-15-17-16-15-16-17-16-19-----------------------|
G|-----------------------------------------------------------------|
D|-----------------------------------------------------------------|
A|-----------------------------------------------------------------|
E|-----------------------------------------------------------------|
Добавлено: 09.03.2012
Другие материалы по этой песне:

Страница создана 02.03.2012
http://primanota.ru/an-cafe/smile-ichiban-ii-onna-chords.htm
Привет, Гость.
Предлагаем пройти революционный курс по гитаре.
Подарок от PrimaNota.Ru, забирай!