PrimaNota.ru - самый крупный в мире бесплатный архив песенных текстов, аккордов, табулатур и нот


An Cafe - Bonds Kizuna - бас-таба, видео

Регистрация Запомнить меня
Войти через:  Facebook Google Twitter Vk Yandex Mail.ru

An Cafe - Bonds Kizuna - бас-таба, видео

Печатать
Просмотров: 168
1.,2.,3.
||------------------|-----------------|-----------------|------------------|
||o-----------------|-----------------|-----------------|-----------------o|
||o-----------------|-----------------|-------------2-3-|-5-5-x-5---5---5-o|
||--1-1-x-1---1---1-|-3-3-x-3---3---3-|-5-5-x-5---5-----|------------------|
4.
|-------------|
|-------------|
|-7--5--3-----|
|----------3--|

Verse
|-----------------|----------------|----------------|----------------|
|o----------------|----------------|----------------|---------------o|
|o-0----(0)-3-3---|-0----(0)-3-3---|-0----(0)-3-3---|-/7--7--7--7\--o|
|---------------3-|--------------3-|--------------3-|----------------|


Interlude
|-----------------|-----------------|-----------------|-----------------|
|-----------------|-----------------|-----------------|-----------------|
|-0-0-0-0-3-3-3-3-|-5-5-5-5-7-7-7-7-|-0-0-0-0-3-3-3-3-|-5-5-5-5-8-8-8-8-|
|-----------------|-----------------|-----------------|-----------------|

|-----------------|-----------------|-----------------|-----------------|
|-----------------|-----------------|-----------------|-----------------|
|-0-0-0-0-3-3-3-3-|-5-5-5-5-7-7-7-7-|-0-0-0-0---------|-----------------|
|-----------------|-----------------|---------3-3-3-3-|-1-3-1-0-(0)--9\-|

Bridge
|------------------|------------------|------------------|------------------|
|------------------|------------------|------------------|------------------|
|-0--0-3-(3)-3-3-3-|------------------|-0--0-3-(3)-3-3-3-|------------------|
|------------------|-1-1-3-(3)-3-3-3--|------------------|-3--3-1-(1)-1-1-1-|

|------------------|------------------|------------------|----------------|
|------------------|------------------|------------------|----------------|
|-0--0-3-(3)-3-3-3-|------------------|-0--0-3-(3)-3-3-3-|----------------|
|------------------|-1--1-3-(3)-3-3-3-|------------------|-1-1-1-1-1-1-3--|


Chorus
|---------------|----------------|
|o--------------|---------------o|
|o--------------|---------------o|
|--5--3--1--x-x-|-3--x-x-5--x-x--|

Chorus pt.2
|-----------------|-----------------|-----------------|-----------------|
|-----------------|-----------------|-----------------|-----------------|
|-----------------|-----------------|-0-0-0-0-0-0-0-0-|-5-5-5-5-5-5-5-5-|
|-1-1-1-1-1-1-1-1-|-3-3-3-3-3-3-3-3-|-----------------|-----------------|

|-----------------|-----------------|-----------------|-----------------||
|-----------------|-----------------|-----------------|7777777775-5-----||
|-----------------|-----------------|-0-0-0-0-0-0-0-0-|----------7-75---||
|-1-1-1-1-1-1-1-1-|-3-3-3-3-3-3-3-3-|-----------------|--------------75-||
Добавлено: 01.03.2012
Другие материалы по этой песне:
  • Аккорды и текст

Страница создана 01.03.2012
http://primanota.ru/an-cafe/bonds-kizuna-chords.htm
Привет, Гость.
Предлагаем пройти революционный курс по гитаре.
Подарок от PrimaNota.Ru, забирай!