PrimaNota.ru - самый крупный в мире бесплатный архив песенных текстов, аккордов, табулатур и нот


An Albatross - I Am The Lazer Viking - таба, видео

Регистрация Запомнить меня
Войти через:  Facebook Google Twitter Vk Yandex Mail.ru

An Albatross - I Am The Lazer Viking - таба, видео

Печатать
Просмотров: 146
   |-3-| |-3-| |-----tr------| |-3------------------------------------|
e|--------------------------------------------------------------------|
B|--------------------------------------------------------------------|
G|--------------------------------------------------------------------|
D|-------------2-2-2-2-4-5-5-5-5p4p2----------------------------------| X4
A|-------2h3h4------------------------4p3p2---------------------------|
E|-2h3h4------------------------------------4p3p2-4p3p2---------------|

   [5th time]

   |-3-| |-3-| |---------------------tr------------------------------|
e|-------------------------------------------------------------------|
B|-------------------------------------------------------------------|
G|-----------------------5-5-5-------5-5-------5-5-------5-5---------|
D|-------------2-2-2-2-4-------5p4p2-----5p4p2-----5p4p2-----5p4p2---|
A|-------2h3h4-------------------------------------------------------|
E|-2h3h4-------------------------------------------------------------|

Outro   (Crazy fast GRINDCORE!!!!!!!!!)

e|------------------------------------------------------|
B|------------------------------------------------------|
G|------------------------------------------------------|
D|-----999999999999999999999999999999999999999----------|
A|-----777777777777777777777777777777777777777----------|
E|------------------------------------------------------|
Добавлено: 21.03.2012
Другие материалы по этой песне:

Страница создана 21.03.2012
http://primanota.ru/an-albatross/i-am-the-lazer-viking-chords.htm
Привет, Гость.
Предлагаем пройти революционный курс по гитаре.
Подарок от PrimaNota.Ru, забирай!