PrimaNota.ru - самый крупный в мире бесплатный архив песенных текстов, аккордов, табулатур и нот


Amy Grant - River Lulluby Prince Of Egypt - таба, видео

Регистрация Запомнить меня
Войти через:  Facebook Google Twitter Vk Yandex Mail.ru

Amy Grant - River Lulluby Prince Of Egypt - таба, видео

Печатать
Просмотров: 86

e|---------------------------------------------------------------------------|
B|-0-3------7-10-8-----10-7-0-7-5---------0-3-7-10-8-10-7--------------------|
G|---------------------------------------------------------------------------|
D|---------------------------------------------------------------------------|
A|---------------------------------------------------------------------------|
E|---------------------------------------------------------------------------|

e|-8-6-4-6-3h6-4-3/1h3-------------------------------------------------------|
B|-----------------------0-1---1---------------------------------------------|
G|---------------------------0----2--2-0-------------------------------------|
D|----------------------------------3----------------------------------------|
A|---------------------------------------------------------------------------|
E|---------------------------------------------------------------------------|x2


************************************

| /   slide up
| \   slide down
| h   hammer-on
| p   pull-off
| ~   vibrato
| +   harmonic
| x   Mute note
| b   Bend
| pb  Pre-bend
| br  Bend release
| pbr Pre-bend release
| brb Bend release bend

************************************
Добавлено: 31.05.2016
Другие материалы по этой песне:
  • Аккорды и текст

Страница создана 31.05.2016
http://primanota.ru/amy-grant/river-lulluby-prince-of-egypt-chords.htm
Привет, Гость.
Предлагаем пройти революционный курс по гитаре.
Подарок от PrimaNota.Ru, забирай!