PrimaNota.ru - самый крупный в мире бесплатный архив песенных текстов, аккордов, табулатур и нот


Amy Bruce Spaceshow - Sleeping - аккорды и текст, видео

Регистрация Запомнить меня
Войти через:  Facebook Google Twitter Vk Yandex Mail.ru

Amy Bruce Spaceshow - Sleeping - аккорды и текст, видео

Печатать
Просмотров: 95
Sleeping
Amy Bruce Spaceshow
-------------------------------------------------------------------------------
                             "Sleeping" - Amy Bruce Spaceshow                        
-------------------------------------------------------------------------------
Tabbed by: Gummyitalian

This is from the Trundle Sessions video 
here: https://www.youtube.com/watch?v=QZLsNLViynE

Ok let's get started!

First off, here's a Weird Em chord thingy we will come back to later.
(I'll label it as Em* in the tab)
e|-----mute----|
B|------2------|
G|------1------|
D|-----mute----|
A|------1------|
E|-----mute----|


Here is the "I slept through most of the sun today" 
and "Won't you humor me" finger picking part
 e|-----------------------------------|
 B|-----------------------------------|
 G|--------4-2----------------------0-|
 D|----0--------------5---5-0-0-0-4---|
 A|--2---2--------------7---5-5-------|
 E|--3---------2/7--0-------5-5-------|


The first part that uses open chords
    
   C               G                            C                   D       
Calling quits in between coughing fits from the tar in my lungs I welcome to stay.


The second part that uses open chords
   
    C               G                         C               D
It persists in the way I exist so I keep my head and try to feel okay.
    G                   D             F#           G
Am I more than what I know or am I simply what I see? 
    G                   D             F#          G
I'm a shell of who I was and of who I'm going to be. 
    G                   D             F#          G
But my sense of self is something I guess is up to me. 
    G                   D               C                  
But I can't breathe. I just can't breathe.
    G                   D               C
But I can't breathe. I just can't breathe.


Then the My Chemical Romance part is just a combination of this finger picking

e|-----------------------------------|
B|-----------------------------------|
G|--------4-2----------------------0-|
D|----0--------------5---5-0-0-0-4---|
A|--2---2--------------7---5-5-------|
E|--3---------2/7--0-------5-5-------|

And these chords

  G             Em*  Bm        Em       D             C         G           C           D
When I was, a young boy, my Father took me in to the city, to see a marching band
  G                Em*  Bm         Em             D             C         G           C           D
He said son when, you grow up, will you be, the savior of the broken? The beaten and the damned?

End on G

GOOD LUCK AND MOST IMPORTANTLY HAVE FUN!!!!!
Добавлено: 10.05.2016
Другие материалы по этой песне:
  • Аккорды и текст

Страница создана 10.05.2016
http://primanota.ru/amy-bruce-spaceshow/sleeping-chords.htm
Привет, Гость.
Предлагаем пройти революционный курс по гитаре.
Подарок от PrimaNota.Ru, забирай!