PrimaNota.ru - самый крупный в мире бесплатный архив песенных текстов, аккордов, табулатур и нот


Амвиш - Потерянный день - аккорды и текст

Регистрация Запомнить меня
Войти через:  Facebook Google Twitter Vk Yandex Mail.ru

Амвиш - Потерянный день - аккорды и текст

Печатать
Просмотров: 36
Потерянный день
Амвиш
Начало и проигрыш: Тема №1
  Am                       С
1----------------------------------------------------|
2--1--------0--------1-----1--------0--------1-------|
3-----2--------2--------2-----0--------0--------0----|
4--------2--------2--------------2--------2----------|
5--0-----------------------3-------------------------|
6----------------------------------------------------|

   G			   Em
1---------------------------------------------------|
2--1--------0--------1-----0--------3--------0------|
3-----0--------0--------0-----0--------0--------0---|
4--------0--------0--------------2--------2---------|
5---------------------------------------------------|
6--3-----------------------0------------------------|    3 раза

  Am   С  G  Em
1----|--|--|-------------------------0--------0--------0------|
2----|--|--|-0--------3--------3--------3--------3--------3---|
3----|--|--|----0--------0--------0--------0--------0---------|
4----|--|--|-------2--------2---------------------------------|
5----|--|--|--------------------------------------------------|
6----|--|--|-0------------------------------------------------|

Тема №2:
  Am                                       
1---------------------------------------------------|
2-1--------0--------1-----3--------1--------0-------|
3----2--------2--------2-----2--------2--------2----|
4-------2--------2--------------2--------2----------|
5-0-------------------------------------------------|
6---------------------------------------------------|    2 раза

   Em
1-0--------------------------------------------------|
2----1-----1-----3--------0--------1--------3--------|
3-------0-----0-----0--------0--------0--------0-----|
4----------------------2--------2--------2-----------|
5-2--------------------------------------------------|
6----------------------------------------------------|  

1-------------------0-------------------------------|
2-0--------1-----------3--0--------1--------3-------|
3----0--------0--------------0--------0--------0----|
4-------2--------2--------------2--------2----------|
5-2-------------------------------------------------|
6---------------------------------------------------|
  
Тема №2
Дни проходят, жизнь летит
А мы живем все там же и все так
Тема №1
Мне кажется, ты хочешь, как и я
Быть вместе рядом быть всегда

Я вижу грусть у тебя в глазах
Они лишь выдают тебя
Ни голос, ни походка, ни слеза
Движения отчетливы и строги

Припев:
Am		 G   C
Но все же хоть ты далеко
    Am	      G    F
Внутри меня живет любовь
  Am	   G	   Em   F
Твоя улыбка кажется рекой
    Am	       G	  Em   F
К которой я все время возвращаюсь 
   Am      F     G
Я думаю и в ней купаюсь
      Тема №1 (боем)
Я в ней купаюсь (2 раза)

День после дня снова ты и я
Жди меня, как я тебя
Я приду, но тебя не найду
Только дым от костра вновь уносит меня

Хоть ты и молчишь, что сказать тебе в ответ
Я не знаю - правда, нет
Ты позабыла наш рассвет
День после дня ночь для тебя и меня

Припев:
Надежда, где она скажи
Закрой глаза представь мы вместе
Твоя улыбка кажется рекой
К которой я все время возвращаюсь 
Я думаю и в ней купаюсь
Я в ней купаюсь (2 раза)
Добавлено: 21.06.2016
Другие материалы по этой песне:
  • Аккорды и текст

Страница создана 21.06.2016
http://primanota.ru/amvish/poteryannyi-den-chords.htm
Привет, Гость.
Предлагаем пройти революционный курс по гитаре.
Подарок от PrimaNota.Ru, забирай!