PrimaNota.ru - самый крупный в мире бесплатный архив песенных текстов, аккордов, табулатур и нот


Amplifier - The Wave - таба, видео

Регистрация Запомнить меня
Войти через:  Facebook Google Twitter Vk Yandex Mail.ru

Amplifier - The Wave - таба, видео

Печатать
Просмотров: 109
Уроки эстрадного вокала в Санкт-Петербурге
Intro: 
                                      
E-|--------------|
B-|--------------|
G-|--9-9--9------|
D-|--9-9--9------|
A-|--7-7--7------|
E-|--0-0--0------|

"Ladies and gentlemen, please step right up, for the end of the world!"

Riff 
E-|----------------|
B-|----------------|
G-|----------------|
D-|----------------|
A-|----------5-7---|
E-|-0-2-4-5-7------|


E                A    Riff#1        E                A
Climb aboard the wave, to somewhere you ain't never been
and in a world of make believe, I'm the emperor and champion
of sheer suicide! of sheer suicide!

     E F  E F E F   E F E F D  
E-|------------------------------|
B-|------------------------------|
G-|--9-10-9-10-9-10-9-10-9-10-7--|
D-|--9-10-9-10-9-10-9-10-9-10-7--|
A-|--7-8--7-8--7-8--7-8--7-8--5--|
E-|------------------------------|
Into another dimension, another dimension
Into another dimension, another dimension
Into another dimension, another dimension
Another dimension, another dimension

Verse:


Bridge:

E-|--------------12--|---10-7-9-------------------------|
B-|------9-10-12-----|---------10--9-10-9--9-10--10-12--|
G-|--7-9-------------|--7----7-----------------9--------|
D-|------------------|----------------------------------|
A-|------------------|----------------------------------|
E-|------------------|----------------------------------|

Riff#1

Verse

Chorus
Добавлено: 27.11.2013
Другие материалы по этой песне:
  • Аккорды и текст

Страница создана 27.11.2013
http://primanota.ru/amplifier/the-wave-chords.htm
Привет, Гость.
Предлагаем пройти революционный курс по гитаре.
Подарок от PrimaNota.Ru, забирай!