PrimaNota.ru - самый крупный в мире бесплатный архив песенных текстов, аккордов, табулатур и нот


Amplifier - Post Acid Youth - бас-таба, видео

Регистрация Запомнить меня
Войти через:  Facebook Google Twitter Vk Yandex Mail.ru

Amplifier - Post Acid Youth - бас-таба, видео

Печатать
Просмотров: 146
Уроки эстрадного вокала в Санкт-Петербурге
-------------------------------------------------------------------------------
POST ACID YOUTH - Amplifier
-------------------------------------------------------------------------------

Tabbed By : colminblack
e-mail: roystonvasey1@msn.com

Neil uses plenty of chorus on the intro riff but less so on the main verse/chorus parts of the song.

Tuning: Db Ab Db Gb

Gb|--0-0----0--0-0-0-------0--0-0-0----0--0-0-0--------(0)--|
Db|-5-5-5/10-10-9-9-9/12-12-12\5-5-5/10-10-9-9-9/12-12\10\7-|
Ab|---------------------------------------------------------|
Db|---------------------------------------------------------| x12

Gb|-------------------------------------------------------------------------------|
Db|-------------------------------------------------------------------------------|
Ab|-------------------------------------------------------------------------------|
Db|-5-5---5-10p9h10\(5)-5-5---5-10p9h10\(5)-5-5---5-9h10p9\(5)-5-5---5-9h10p9\(5)-| x3

Gb|--------------------------------------------------------------------------|
Db|--------------------------------------------------------------------------|
Ab|--------------------------------------------------------------------5---5-|
Db|-5-5---5-10p9h10\(5)-5-5---5-10p9h10\(5)-5-5---5-9h10p9\(5)-5-5---5-------|

Gb|----------------------------|
Db|----------------------------|
Ab|----------------------------|
Db|-5-5-5-5-5-55-53-3-3-0-3-33-| x4

Gb|--------------------------------------|
Db|--------------------------------------|
Ab|-----10---8---10-10-----10---8---8-10-|
Db|-5--/---------------5--/--------------| x2

Gb|--------------------------------------------------------|
Db|--------------------------------------3h5-3-2-----------|
Ab|----------------------22----------------------3-2-2-----|
Db|-5-5-5-5-33---5-5-5-5------5-5-5-5-3h5--------------5-3-|

Gb|-------------------------------------------------------------------------------|
Db|-------------------------------------------------------------------------------|
Ab|-------------------------------------------------------------------------------|
Db|-5-5---5-10p9h10\(5)-5-5---5-10p9h10\(5)-5-5---5-9h10p9\(5)-5-5---5-9h10p9\(5)-| x4

Gb|--0-0----0--0-0-0-------0--0-0-0----0--0-0-0--------(0)--|
Db|-5-5-5/10-10-9-9-9/12-12-12\5-5-5/10-10-9-9-9/12-12\10\7-|
Ab|---------------------------------------------------------|
Db|---------------------------------------------------------| x4

Gb|--0-0----0--0-0-0-------0--0---------------|
Db|-5-5-5/10-10-9-9-9/12-12-12\---------------|
Ab|-----------------------------3-1-----------|
Db|---------------------------------5-3(hold)-|

Gb|--0-0----0--0-0-0-------0--0-0-0----0--0-0-0--------(0)--|
Db|-5-5-5/10-10-9-9-9/12-12-12\5-5-5/10-10-9-9-9/12-12\10\7-|
Ab|---------------------------------------------------------|
Db|---------------------------------------------------------| x4

Gb|--------------------------------------------------------------------------|
Db|--------------------------------------------------------------------------|
Ab|-----10---8---10-10-----10---8---8-10-----10---8---7-8-----10---8---10-10-|
Db|-5--/---------------5--/--------------5--/-------------5--/---------------| x2

Gb|-------------------------------------------------------------------------------|
Db|-------------------------------------------------------------------------------|
Ab|-------------------------------------------------------------------------------|
Db|-5-5---5-10p9h10\(5)-5-5---5-10p9h10\(5)-5-5---5-9h10p9\(5)-5-5---5-9h10p9\(5)-| x4

Gb|--------------------------------------------------------------|
Db|--------------------------------------------------------------|
Ab|--------------------------------------------------------------|
Db|-5-5-5-5-3-5-----5-5-5-5-3-0-----5-5-5-5-3-5-----5-5-5-5-3-0--| x2

Gb|-----------------------------------------------------------------------
Db|-----------------------------------------------------------------------
Ab|-3---3-----------2-------2---2-0-2---3---3-----------2-------2---2-0-2-
Db|---------3---5-------5-----------------------3---5-------5-------------

   ---------------------------------------------------------------------------
   ---------------------------------------------------------------------------
   -3---3-----------2-------2---2-0-2---3---3---7-----------------------------
   ---------3---5-------5---------------------------3---5-5-5-5-5---5-5-5-5-5-

   ----------------------------------------------------------------
   ----------------------------------------------------------------
   ----------------------------------------------------------------
   -5---5---5-----5---5---5-----5-5-5-5-5---5-5-5-5-5---5--5--5--5-

   ---------------------------------|
   ---------------------------------|
   ---------------------------------|
   -5-5-5-5-5-5-5-5-5-5-5-5-5(hold)-|

Gb|--0-0----0--0-0-0-------0--0-0-0----0--0-0-0--------(0)--|
Db|-5-5-5/10-10-9-9-9/12-12-12\5-5-5/10-10-9-9-9/12-12\10\7-|
Ab|---------------------------------------------------------|
Db|---------------------------------------------------------| x2 (second time get slower)

Добавлено: 25.05.2012
Другие материалы по этой песне:
  • Аккорды и текст

Страница создана 25.05.2012
http://primanota.ru/amplifier/post-acid-youth-chords.htm
Привет, Гость.
Предлагаем пройти революционный курс по гитаре.
Подарок от PrimaNota.Ru, забирай!