PrimaNota.ru - самый крупный в мире бесплатный архив песенных текстов, аккордов, табулатур и нот


Amplifier - Planet Of Insects - таба, видео

Регистрация Запомнить меня
Войти через:  Facebook Google Twitter Vk Yandex Mail.ru

Amplifier - Planet Of Insects - таба, видео

Печатать
Просмотров: 150
-------------------------------------------------------------------------------
                             Planet Of Insects - Amplifier
-------------------------------------------------------------------------------
Tabbed by: niggel.n


Tuning: Standart

Listen to the song to get the timing. I will not tab every note.



A|--x-x-     <- palm muting  
E|--0-0- 


      

Intro

First Guitar


e|---------------------------------------------------------------------------|
B|---------------------------------------------------------------------------|
G|-------9------9----------9--9----------------------------------------------| 8x
D|-------9------9----------9--9----------------------------------------------|
A|---x-x-7--x-x-7--x-x-x-x-7--7----------------------------------------------|
E|---0-0----0-0----0-0-0-0---------------------------------------------------|

Second guitar (5th to 8th bar)

e|---------------------------------------------------------------------------|
B|---------------------------------------------------------------------------|
G|---13----------------------------------------------------------------------|
D|---------------------------------------------------------------------------|
A|---11----------------------------------------------------------------------|
E|---------------------------------------------------------------------------|

e|---------------------------------------------------------------------------|
B|---------------------------------------------------------------------------|
G|---------------------------------------------------------------------------|
D|-----9--9---9--9---9-9-----------------------------------------------------| 4x
A|-----7--7---7--7---7-7-----------------------------------------------------| 
E|---0------0------0---------------------------------------------------------|


e|---------------------------------------------------------------------------|
B|---------------------------------------------------------------------------|
G|---------------------------------------------------------------------------|
D|---10-9--9---9--9----9--9--10-10---7-7--7---7--7-7-------------------------| 2x
A|---8--7--7---7--7----7--7---8--8---5-5--5---5--5-5-------------------------|
E|----------0-------0------0------------(0)----(0)---------------------------|

e|---------------------------------------------------------------------------|
B|---------------------------------------------------------------------------|
G|---------------------------------------------------------------------------|
D|---14-14--13-9--9----9--9---10-10--7-7--7---7--7-7-------------------------|
A|---12-12--11-7--7----7--7---8--8---5-5--5---5--5-5-------------------------| 2x
E|---------0--------0------0------------(0)----(0)---------------------------|


Verse

e|---------------------------------------------------------------------------|
B|---------------------------------------------------------------------------|
G|---------------------------------------------------------------------------|
D|---9/10-10-10-9-9-----9-9-----9-9---99-------------------------------------|
A|---7/8--8--8--7-7-x-x-7-7-x-x-7-7-x-77-------------------------------------|
E|------------------0-0-----0-0-----0----------------------------------------|

Chorus Riff

e|---------------------------------------------------------------------------|
B|---------------------------------------------------------------------------|
G|---10--9-9-----5-------10--9-9------5--------------------------------------|
D|---10--9-9-----5--3----10--9-9------5---3--3--3--3-------------------------|
A|---8---7-7-----3--3-----8--7-7------3---3--3--3--3-------------------------|
E|-------0-0--------1--------0-0----------1--1--1--1-------------------------|

Verse

e|---------------------------------------------------------------------------|
B|---------------------------------------------------------------------------|
G|---------------------------------------------------------------------------|
D|---9/10-10-10-9-9-----9-9-----9-9---99-------------------------------------|
A|---7/8--8--8--7-7-x-x-7-7-x-x-7-7-x-77-------------------------------------|
E|------------------0-0-----0-0-----0----------------------------------------|


e|---------------------------------------------------------------------------|
B|---------------------------------------------------------------------------|
G|---14--13-13---------------------------------------------------------------|
D|---x----x--x--9-9----9-9----10--7-7---7-7---7------------------------------|
A|---12--11-11--7-7----7-7----8---5-5---5-5---5------------------------------|
E|------0------------0------0--------(0)---(0)-------------------------------|

Chorus Riff


e|---------------------------------------------------------------------------|
B|---------------------------------------------------------------------------|
G|---10--9-9-----5-------10--9-9------5--------------------------------------|
D|---10--9-9-----5--3----10--9-9------5---3--3--3--3-------------------------|
A|---8---7-7-----3--3-----8--7-7------3---3--3--3--3-------------------------|
E|-------0-0--------1--------0-0----------1--1--1--1-------------------------|

Bridge


e|---------------------------------------------------------------------------|
B|---------------------------------------------------------------8b----------|
G|---9------------10-------12--------9--9--7-9-10-----12---------------------|
D|---9------------10-------12--------9--9--7-9-10-----12---------------------| 4x
A|---7------------8--------10--------7--7--5-7-8------10---------------------|
E|---0-------------------------------0--0------------------------------------|

e|---------------------------------------------------------------------------|
B|-----------------10--------------------------------------------------------|
G|-----------------12b-------------------------------------------------------|
D|---------------------------------------------------------------------------|
A|---------------------------------------------------------------------------|
E|---0-1-3-0-1-3-------------------------------------------------------------|



Verse

e|---------------------------------------------------------------------------|
B|---------------------------------------------------------------------------|
G|---------------------------------------------------------------------------|
D|---9/10-10-10-9-9-----9-9-----9-9---99-------------------------------------|
A|---7/8--8--8--7-7-x-x-7-7-x-x-7-7-x-77-------------------------------------|
E|------------------0-0-----0-0-----0----------------------------------------|

Chorus Riff


e|---------------------------------------------------------------------------|
B|---------------------------------------------------------------------------|
G|---10--9-9-----5-------10--9-9------5--------------------------------------|
D|---10--9-9-----5--3----10--9-9------5---3--3--3--3-------------------------|
A|---8---7-7-----3--3-----8--7-7------3---3--3--3--3-------------------------|
E|-------0-0--------1--------0-0----------1--1--1--1-------------------------|


Outro (Verse)


e|---------------------------------------------------------------------------|
B|---------------------------------------------------------------------------|
G|---------------------------------------------------------------------------|
D|---9/10-10-10-9-9-----9-9-----9-9---99-------------------------14\---------|
A|---7/8--8--8--7-7-x-x-7-7-x-x-7-7-x-77-------------------------14\---------|
E|------------------0-0-----0-0-----0----------------------------12\---------|



That's roughly it. Some details are missing. Have fun with this tab and your effect pedals.






************************************

| /   slide up
| \   slide down
| h   hammer-on
| p   pull-off
| ~   vibrato
| +   harmonic
| x   Mute note
| b   Bend
| pb  Pre-bend
| br  Bend release
| pbr Pre-bend release
| brb Bend release bend

************************************
Добавлено: 16.03.2012
Другие материалы по этой песне:
  • Аккорды и текст

Страница создана 16.03.2012
http://primanota.ru/amplifier/planet-of-insects-chords.htm
Привет, Гость.
Предлагаем пройти революционный курс по гитаре.
Подарок от PrimaNota.Ru, забирай!