PrimaNota.ru - самый крупный в мире бесплатный архив песенных текстов, аккордов, табулатур и нот


Amplifier - Panzer - бас-таба, видео

Регистрация Запомнить меня
Войти через:  Facebook Google Twitter Vk Yandex Mail.ru

Amplifier - Panzer - бас-таба, видео

Печатать
Просмотров: 146
-------------------------------------------------------------------------------
PANZER - Amplifier
-------------------------------------------------------------------------------

Tabbed By : colminblack
e-mail: roystonvasey1@msn.com

Neil uses a tube distortion effect, a bit of delay, octave, and slight auto-wah on the intro riff.
During the rest of the song he uses a plain high gain distortion effect.

Tuning: C G C F

F|----------------------------------------------------------|
C|-12-12-13(let ring)\(0)---12-13-12-0-10-0-10-12-12-12\(0)-|
G|----------------------------------------------------------|
C|----------------------------------------------------------| x4

F|----------------------------------|
C|----------------------------------|
G|----------------------------------|
C|-0-0-12-12\(0)-----0-12--10h12-12-| x3

F|-------------------------------------|
C|-------------------------------------|
G|-------------------------------------|
C|-0-0-12-12\(0)-----0-12--10h12(hold)-|

F|----------------------------------|
C|----------------------------------|
G|----------------------------------|
C|-0-0-12-12\(0)-----0-12--10h12-12-| x4

F|------------------------------------------
C|------------------------------------------
G|------------------------------------------
C|-0-0-0-0-0000-0-0-0-0000-0-0-0-0000-0-0-0- x2

  ------------------------------------------------
  ------------------------------------------------
  ------------------------------------------------
  -0-0-0-0-0000-0-0-0-0000-0-0-0-0000-10-12-10-12-

  --------------------------------------------------|
  --------------------------------------------------|
  --------------------------------------------------|
  -0-0-0-0-0000-0-0-0-0000-0-0-0-0000-0-0-0-3(hold)-|

F|-------|
C|-------|
G|-------|
C|-0-5-4-|

F|--------------------------------------------
C|--------------------------------------------
G|---5-3-5-5/6-5-3-3/5---3-3-0-3-3/5--5-3-0-3-
C|-0------------------------------------------

  ---------------------------------------|
  ---------------------------------------|
  ---5-3-5/6-5-3-3/5---3-3-0-3-3/5-------|
  -0-------------------------------0-5-4-| x2

F|----------------------------------------------------------|
C|-12-12-13(let ring)\(0)---12-13-12-0-10-0-10-12-12-12\(0)-|
G|----------------------------------------------------------|
C|----------------------------------------------------------| (use beginning effects)

F|----------------------------------|
C|----------------------------------|
G|----------------------------------|
C|-0-0-12-12\(0)-----0-12--10h12-12-| x4

F|------------------------------------------
C|------------------------------------------
G|------------------------------------------
C|-0-0-0-0-0000-0-0-0-0000-0-0-0-0000-0-0-0- x2

  ------------------------------------------------
  ------------------------------------------------
  ------------------------------------------------
  -0-0-0-0-0000-0-0-0-0000-0-0-0-0000-10-12-10-12-

  ------------------------------------------|
  ------------------------------------------|
  ------------------------------------------|
  -0-0-0-0-0000-0-0-0-0000-0-0-0-0000-0-0-0-|

F|--------------------------------------------
C|--------------------------------------------
G|---5-3-5-5/6-5-3-3/5---3-3-0-3-3/5--5-3-0-3-
C|-0------------------------------------------

  -----------------------------------------|
  -----------------------------------------|
  ---5-3-5-5/6-5-3-3/5---3-3-0-3-3/5-------|
  -0---------------------------------0-5-4-| x2

F|---------------------------------|
C|---------------------------------|
G|---------------------------------|
C|-0-----0---0---0-0-----0---0-5-4-| x4

Guitar break

F|-----
C|-----
G|-----
C|-5-4-

F|---------------------------------|
C|---------------------------------|
G|---------------------------------|
C|-0-----0---0---0-0-----0---0-5-4-| x16

F|---------------------------------------|
C|---------------------------------------|
G|-8---8--\2---2-2-2-2h3-----------------|
C|-----------------------3-0-3-----0-5-4-|

F|----------------------------------------
C|----------------------------------------
G|---5-3-5-5/6-5-------3-3-0-3-3/5--5-----
C|-0-------------5-4------------------5-4-

  -------------------------------------|
  -------------------------------------|
  -5-3-5-5/6-5-------3-3-0-3-3/5-------|
  -------------5-4---------------0-5-4-| x3

F|----------------------------------------
C|----------------------------------------
G|---5-3-5-5/6-5-------3-3-0-3-3/5--5-----
C|-0-------------5-4------------------5-4-

  -------------------------------------------------------------------------------------|
  -------------------------------------------------------------------------------------|
  -5-3-5-5/6-5-------3-3-0-3-3/5-----------------------------------5-------5-------5---|
  -------------5-4---------------0-5-4-3(hold)---5-3-5---3---5-3-5---5-3-5---5-3-5---0-|

Добавлено: 22.06.2012
Другие материалы по этой песне:
  • Аккорды и текст

Страница создана 22.06.2012
http://primanota.ru/amplifier/panzer-chords.htm
Привет, Гость.
Предлагаем пройти революционный курс по гитаре.
Подарок от PrimaNota.Ru, забирай!