PrimaNota.ru - самый крупный в мире бесплатный архив песенных текстов, аккордов, табулатур и нот


Amplifier - Into The Space Age - таба, видео

Регистрация Запомнить меня
Войти через:  Facebook Google Twitter Vk Yandex Mail.ru

Amplifier - Into The Space Age - таба, видео

Печатать
Просмотров: 150
Уроки эстрадного вокала в Санкт-Петербурге
-------------------------------------------------------------------------------
			     Into the Space Age - Amplifier
-------------------------------------------------------------------------------
Tabbed by: niggel.n

Tuning: D# G# C# F# A# d#

Listen to the song to get the timing. I will not tab every note.


Intro

e|---------------------------------------------------------------------------|
B|-------------17------------------------------------------------------------|
G|---13---17---x--------------16--15--13-------------------------------------|
D|---x----x----14-------------------------14---------------------------------|
A|---11---15----------------------------------14--13--11---------------------|
E|--------------------------------------------------------12-----------------|

Verse

e|---------------------------------------------------------------------------|
B|---------------------------------------------------------------------------|
G|---------------------------------------------------------------------------|
D|---------------------------------------------------------------------------|
A|---2--2--2----5h7-7--------------------------------------------------------|
E|---0--0--0-----------------------------------------------------------------|


e|---------------------------------------------------------------------------|
B|---------------------------------------------------------------------------|
G|---------------------------------------------------------------------------|
D|---------------------------------------------------------------------------|
A|---2--2--2-----------------------------------------------------------------|
E|---0--0--0-----------------------------------------------------------------|


e|-----0-----0---0-----0---0-------0----0-------0----------------------------|
B|--------(0)-----------------(0)----------(0)-------------------------------|
G|---9---9-----7---7-9---1---1---1--1/3---3---3------------------------------|
D|---------------------------------------------------------------------------|
A|---------------------------------------------------------------------------|
E|---------------------------------------------------------------------------|


e|-----0-----0---0-----0---0-------0-----0----0----0-------------------------|
B|--------(0)-----------------(0)--------------------------------------------|
G|---9---9-----7---7-9---3---3---3--3/10---10---10---------------------------|
D|---------------------------------------------------------------------------|
A|---------------------------------------------------------------------------|
E|---------------------------------------------------------------------------|


e|---0---0-----0--0--0--0---0---0---0--0--0--0--0--0--0--0--0----------------|
B|---0---0-----0--0--0--0---0---0---0--0--0--0--0--0--0--0--0----------------|
G|---9---9-----7--9--7--x---x---x---x--x--x--x--x--x--x--x--x----------------|
D|---x---x-----x--x--x--8---6---6---8--8--8--8--8--8--8--8--8----------------|
A|---7---7-----5--7--5--x---x---x---x--x--x--x--x--x--x--x--x----------------|
E|----------------------6---4---4---6--6--6--6--6--6--6--6--6----------------|


e|---0---0-----0--0--0--0---0---0---0--0--0--0--0--0--0--0--0----------------|
B|---0---0-----0--0--0--0---0---0---0--0--0--0--0--0--0--0--0----------------|
G|---9---9-----7--9--7--x---x---x---10-10-10-10-10-10-10-10-10---------------|
D|---x---x-----x--x--x--8---8---8---x--x--x--x--x--x--x--x--x----------------|
A|---7---7-----5--7--5--x---x---x---8--8--8--8--8--8--8--8--8----------------|
E|----------------------6---6---6--------------------------------------------|

Little Variation

e|---------------------------------------------------------------------------|
B|---------------------------------------------------------------------------|
G|---------------------------------------------------------------------------|
D|---------------------------------------------------------------------------|
A|--/5--7--8-----------------------------------------------------------------|
E|---------------------------------------------------------------------------|

Chorus

e|---------------------------------------------------------------------------|
B|---------------------------------------------------------------------------|
G|---9----------10-----7-----------------------------------------------------|
D|---9----------10-----7----8------------------------------------------------|
A|---7----------8------5----8------------------------------------------------|
E|---0----------------------6------------------------------------------------|


e|---------------------------------------------------------------------------|
B|---------------------------------------------------------------------------|
G|-----------------------------------------13--------------------------------|
D|---2--2--2----------------------------12-----------------------------------|
A|---2--2--2------------------------/11--------------------------------------|
E|---0--0--0-----------------------------------------------------------------|

                              let ring - - - - - - - - - - - - - - - - - - - |


Solo

e|---0h1p0-----0-----0---0---------------------------------------------------|
B|----------0-----0----0---0-------------------------------------------------|
G|---------------------------------------------------------------------------| 3x
D|---------------------------------------------------------------------------|
A|---------------------------------------------------------------------------|
E|---------------------------------------------------------------------------|


e|---0h1p0-----0-----4-4-4h6p4p0---0-----------------------------------------|
B|----------0-----0--------------0-------------------------------------------|
G|---------------------------------------------------------------------------|
D|---------------------------------------------------------------------------|
A|---------------------------------------------------------------------------|
E|---------------------------------------------------------------------------|


e|---6h7p6p0----4---4---4----------------------------------------------------|
B|------------0---0---0--0---------------------------------------------------|
G|---------------------------------------------------------------------------|
D|---------------------------------------------------------------------------|
A|---------------------------------------------------------------------------|
E|---------------------------------------------------------------------------|


e|---6h7p6p0----4---4--0-----0-----------------------------------------------|
B|------------0---0---3-3--6---5---------------------------------------------|
G|---------------------------------------------------------------------------|
D|---------------------------------------------------------------------------|
A|---------------------------------------------------------------------------|
E|---------------------------------------------------------------------------|


e|----9h10---6h7---6h7---6h7---6h7-3h4---------------------------------------|
B|---------0-----0-----0-----0-----------------------------------------------|
G|---------------------------------------------------------------------------|
D|---------------------------------------------------------------------------|
A|---------------------------------------------------------------------------|
E|---------------------------------------------------------------------------|

						     Last Bar:

e|---9h10---6h7---6h7-----0-----0-------------------9h10p9---6h7p4---0-----0-|
B|--------0-----0-----0--3-3--6---5---------------------------------3-3--6--5|
G|---------------------------------------------------------------------------|
D|---------------------------------------------------------------------------|
A|---------------------------------------------------------------------------|
E|---------------------------------------------------------------------------|

Interlude:

e|---0---0----0----0---0---0----0-----0--------------------------------------|
B|-----3---6---5-----5---3---5-----------------------------------------------|
G|---------------------------------1-----------------------------------------|
D|---------------------------------------------------------------------------|
A|---------------------------------------------------------------------------|
E|---------------------------------------------------------------------------|


e|------0---0----------------------------------------------------------------|
B|----3---3------------------------------------------------------------------|
G|-------------3-3-3-1-------------------------------------------------------|
D|---------------------------------------------------------------------------|
A|---------------------------------------------------------------------------|
E|---------------------------------------------------------------------------|


Verse

e|---------------------------------------------------------------------------|
B|---------------------------------11-------------11-------------------------|
G|------7-\-4--7-/-9--9-9-9-9---------10-9-7----7----10-9-7------------------| 2x
D|------x-\-x--x-/-x--x-x-x-x------------------------------------------------|
A|------5-\-2--5-/-7--7-7-7-7------------------------------------------------|
E|---------------------------------------------------------------------------|

Variation


e|---------------------------------------------------------------------------|
B|---------------------------------------------------------------------------|
G|------7-\-4--7-/-9--9-9-9-9------4-5-6-7--7/8------------------------------|
D|------x-\-x--x-/-x--x-x-x-x------x-x-x-x--x/x------------------------------|
A|------5-\-2--5-/-7--7-7-7-7------2-3-4-5--5/6------------------------------|
E|---------------------------------------------------------------------------|



e|------0--0--0-0-0--0----0--0-0---------------------------------------------|
B|------0--0--0-0-0--0----0--0-0---------------------------------------------|
G|------9--9--7/9\5--4----9/10\9---------------------------------------------|
D|------x--x--x/x\x--x----x/-x\x---------------------------------------------|
A|------7--7--5/7\5--2----7/-8\7---------------------------------------------|
E|---------------------------------------------------------------------------|


Chorus

e|---------------------------------------------------------------------------|
B|---------------------------------------------------------------------------|
G|---9----------10-----7-----------------------------------------------------|
D|---9----------10-----7----8------------------------------------------------|
A|---7----------8------5----8------------------------------------------------|
E|---0----------------------6------------------------------------------------|


e|---------------------------------------------------------------------------|
B|---------------------------------------------------------------------------|
G|-----------------------------------------13--------------------------------|
D|---2--2--2----------------------------12-----------------------------------|
A|---2--2--2------------------------/11--------------------------------------|
E|---0--0--0-----------------------------------------------------------------|

                              let ring - - - - - - - - - - - - - - - - - - - |



That's roughly it. Have fun with this tab and your effect pedals.




************************************

| /   slide up
| \   slide down
| h   hammer-on
| p   pull-off
| ~   vibrato
| +   harmonic
| x   Mute note
| b   Bend
| pb  Pre-bend
| br  Bend release
| pbr Pre-bend release
| brb Bend release bend

************************************
Добавлено: 09.04.2012
Другие материалы по этой песне:
  • Аккорды и текст

Страница создана 09.04.2012
http://primanota.ru/amplifier/into-the-space-age-chords.htm
Привет, Гость.
Предлагаем пройти революционный курс по гитаре.
Подарок от PrimaNota.Ru, забирай!