PrimaNota.ru - самый крупный в мире бесплатный архив песенных текстов, аккордов, табулатур и нот


Amplifier - Continuum - таба, видео

Регистрация Запомнить меня
Войти через:  Facebook Google Twitter Vk Yandex Mail.ru

Amplifier - Continuum - таба, видео

Печатать
Просмотров: 146
Уроки эстрадного вокала в Санкт-Петербурге
------------------------------------------------------------------------------
                             Continuum - Amplifier
-------------------------------------------------------------------------------
Tabbed by: Ben Peers
Email: ben.peers.92@hotmail.co.uk

Tuning: Eb Ab Db Gb Bb Eb


Intro: (loaded with effects)

eb|(0)-----------------------------------------------|
Bb|-----------------------------(0)------------------|
Gb|-9-------9-11--8---------8-9--4-------------------|
Db|--------------------------------------------------|
Ab|--------------------------------------------------|
Eb|--------------------------------------------------|


eb|--------------------------------------------------|
Bb|--------------------------------------------------|
Gb|-13------------7-----------6---------------6-9----|
Db|--------------------------------------------------|
Ab|--------------------------------------------------|
Eb|--------------------------------------------------|


Drums Start:

eb|(0)-----------------------------------------------|
Bb|(0)-----------------------------------------------|
Gb|-4----------7-------------6----6-9--(9)-----------|
Db|--------------------------------------------------|
Ab|--------------------------------------------------|
Eb|--------------------------------------------------|


eb|--------------------------------------------------|
Bb|--------------------------------------------------|
Gb|-3-----4-(4)----------------3-----4-(4)-----------|
Db|--------------------------------------------------| repeat
Ab|--------------------------------------------------|
Eb|--------------------------------------------------|


Verse 1 Part 1:

eb|--------------------------------------------------|
Bb|--------------------------------------------------|
Gb|---3-----3-----3-----4-----4---4------------------|
Db|-2---2-2-----2---2-2---2-2---2--------------------| repeat
Ab|--------------------------------------------------|
Eb|--------------------------------------------------|


Verse 1 Part 2:

eb|---------------------------0----------------------|
Bb|-----------------------------0--------------------|
Gb|---3-----3-----3-----4---------4------------------|
Db|-2---2-2-----2---2-2---2-2------------------------| repeat
Ab|--------------------------------------------------|
Eb|--------------------------------------------------|

Chorus 1 and 2: (the way I play it, anyway)

eb|-----------0---------0----0---0-----0--0--0--0----|
Bb|-----------0---------11---11--12----11-12-11-12---|
Gb|-3-------3-4--------------------------------------|
Db|-2-------2-2--------------------------------------| repeat
Ab|--------------------------------------------------|
Eb|(0)-------(0)-------------------------------------|



Short bridge before verse 2: (let it ring out loads)

eb|-----------16-----------------14------------------|
Bb|-15-----------------------------------------------|
Gb|-------13----------15--13-------------------------|
Db|--------------------------------------------------| repeat
Ab|--------------------------------------------------|
Eb|--------------------------------------------------|


Verse 2 Part 1:

eb|---------------0-0--------------------------------|
Bb|-------------------0------------------------------|
Gb|-----3---1-------------------3---1-------4-3-1----|
Db|-2-----------------------2------------------------| repeat
Ab|--------------------------------------------------|
Eb|--------------------------------------------------|


Verse 1 Part 2:

eb|---------------------------0----------------------|
Bb|-----------------------------0--------------------|
Gb|---3-----3-----3-----4---------4------------------|
Db|-2---2-2-----2---2-2---2-2------------------------| repeat
Ab|--------------------------------------------------|
Eb|--------------------------------------------------|


*Chorus same as 1st chorus*


Bridge: (slide from 2nd to 6th fret)

eb|----------------------------0-0-------------------|
Bb|--------------------------------------------------|
Gb|--------3-----------------------------------------|
Db|-2----2--------2-2/6-----6-------6----------------| repeat
Ab|--------------------------------------------------|
Eb|--------------------------------------------------|


Nice chord:

eb|--4----------------------4------------------------|
Bb|--5----------------------5------------------------|
Gb|--4----------------------4------------------------|
Db|--6----------------------6------------------------|
Ab|--7----------------------7------------------------|
Eb|-----------------------------------------/12\-----|


Solo type thing: 

eb|-------19\----14\---------------11---9-----7-9-7--|
Bb|---------------------14\--------------------------|
Gb|-/16-----------------------8/9--------------------|
Db|--------------------------------------------------|
Ab|--------------------------------------------------|
Eb|--------------------------------------------------|


eb|---------12----11---------------------------------|
Bb|------12----12-----------11--9-11-12--------------|
Gb|-9--------------------9------------------9/13--13-|
Db|--------------------------------------------------|
Ab|--------------------------------------------------|
Eb|--------------------------------------------------|



Lots of strumming on this chord:

eb|--0-----------------------------------------------|
Bb|--0-----------------------------------------------|
Gb|--------------------------------------------------|
Db|--2-----------------------------------------------|
Ab|--2-----------------------------------------------|
Eb|--0-----------------------------------------------|


Verse 3 Part 1:

eb|--------------------------------------------------|
Bb|--------------------------------------------------|
Gb|---3-----3-----3-----4-----4---4------------------|
Db|-2---2-2-----2---2-2---2-2---2--------------------| repeat
Ab|--------------------------------------------------|
Eb|--------------------------------------------------|


Verse 3 Part 2:

eb|--------------------------------------------------|
Bb|----4-4-2-------2-----------4-4-2------2----------|
Gb|-----------1-1-----1---------------1-1--------4---|
Db|-2--------------------4---2----------------4/6----|
Ab|--------------------------------------------------|
Eb|--------------------------------------------------|


Ends on the last time with:

eb|--------------|
Bb|--2-0-2-0-----|
Gb|--1-1-1-1-----|
Db|--------------|
Ab|--------------|
Eb|--------------|



Last Chorus:

eb|-----------0--------------------------------------|
Bb|-----------0--------------------------------------|
Gb|----------------------6--(8)-----4----------------|
Db|-2---------2----------6--(8)-----4----------------| repeat x4
Ab|-2---------2----------4--(6)-----2----------------|
Eb|-0---------0--------------------------------------|



eb|-------------------------------------0------------|
Bb|-------------------------------------0------------|
Gb|-6------------------------------------------------|
Db|-6-------------7-------------2-------2------------| repeat x2
Ab|-4----4---4----7-------------2-------2------------|
Eb|----7---7---7--5--4-5-4-5-4--0-------0------------|



eb|------------------------------------0------------|
Bb|------------------------------------0------------|
Gb|-6--6--x-x-x-x-----------------------------------|
Db|-6--6--x-x-x-x--7--7---------2------2------------|
Ab|-4--4--x-x-x-x--7--7---------2------2---5-7-5----|
Eb|----------------5--5--/12\---0------0---------7--|


eb|------------------------------------0-------------|
Bb|------------------------------------0-------------|
Gb|--------------------------------------------------|
Db|---------------7-------------2------2-------------|
Ab|-4-----4-------7-------------2------2-------------|
Eb|-----7---7-5---5---4-5-4-0---0------0-------------|


Outro:

eb|-0--0--0----0----0--------------------------------|
Bb|-11-12-11---11---12-------------------------------|
Gb|--------------------------------------------------|
Db|----------------------------------2-2-2-2---------| repeat
Ab|----------------------------------2-2-2-2---------|
Eb|--------------------------12\-----0-0-0-0---------|


eb|-0--0--0-----------------------------------------||
Bb|-11-12-11----------------------------------------||
Gb|--------------x-x--------------------------------||
Db|--------------x-x---2----------------------------||
Ab|--------------x-x---2----------------------------||
Eb|--------------------0----------------------------||



Enjoy playing this wonderful wonderful song.

One of their best.

Long live Amplifier!


************************************

| /   slide up
| \   slide down
| h   hammer-on
| p   pull-off
| ~   vibrato
| +   harmonic
| x   Mute note
| b   Bend
| pb  Pre-bend
| br  Bend release
| pbr Pre-bend release
| brb Bend release bend

************************************
Добавлено: 24.03.2012
Другие материалы по этой песне:
  • Аккорды и текст

Страница создана 24.03.2012
http://primanota.ru/amplifier/continuum-chords.htm
Привет, Гость.
Предлагаем пройти революционный курс по гитаре.
Подарок от PrimaNota.Ru, забирай!