PrimaNota.ru - самый крупный в мире бесплатный архив песенных текстов, аккордов, табулатур и нот


Amplifier - Consultancy - таба, бас-таба, видео

Регистрация Запомнить меня
Войти через:  Facebook Google Twitter Vk Yandex Mail.ru

Amplifier - Consultancy - таба, бас-таба, видео

Печатать
Просмотров: 159
-------------------------------------------------------------------------------
			     The Consultancy - Amplifier
-------------------------------------------------------------------------------
Tabbed by: niggel.n

Tuning: D# G# C# F# A# d#

Listen to the song to get the timing and the tremolo picking at several parts. I 
will not tab every note.



Intro                                             use Wha here....

e|---------------------------------------------------------------------------|
B|---------------------------8b----------------------------------------------|
G|--9---------------------------------------------9--------------------------|
D|--9---------------------------------------------9--------------------------|
A|--7---------------------------------------------7--------------------------|
E|--0------------------------------------------------------------------------|

Mighty Main Riff

e|-------------12------------------------------------------------------------|
B|----------12----15-12------12-----12-----12h14h15--------------------------|
G|-------12------------------------------------------------------------------|
D|---/14------------------14-----14-----14-----------------------------------|
A|---------------------------------------------------------------------------|
E|---------------------------------------------------------------------------|

e|---------------------------------------------------------------------------|
B|---------14-------14-------------15-------15-------------------------------|
G|------13-------13-------13----12-------12----------------------------------|
D|---11-------11-------11----12-------12-------------------------------------|
A|---------------------------------------------------------------------------|
E|---------------------------------------------------------------------------|

e|------------12--14--16-----------------------------------------------------|
B|---12-14-15-------------------15-14-12-------------------------------------|
G|---------------------------------------------------------------------------|
D|---------------------------------------------------------------------------|
A|---------------------------------------------------------------------------|
E|---------------------------------------------------------------------------|

e|------------12----------------12-------------------------------------------|
B|---------12----15-12-------12----15-12----12h14h15-------------------------|
G|------12----------------12-------------------------------------------------|
D|---14----------------14----------------14----------------------------------|
A|---------------------------------------------------------------------------|
E|---------------------------------------------------------------------------|

e|---------------------------------------------------------------------------|
B|---14-------14-------14----------15-------15-------------------------------|
G|------13-------13-------13----12-------12----------------------------------|
D|---------11-------11-------12-------12-------------------------------------|
A|---------------------------------------------------------------------------|
E|---------------------------------------------------------------------------|

Verse							

e|---------------------------------------------------------------------------|
B|---------------------------------------------------------------------------|
G|---------------------------------------------------------------------------|
D|----2--x-2-/-9-9--x-9--2--x-2-/-9-9--x-9-----------------------------------|
A|----2--x-2-/-7-7--x-7--2--x-2-/-7-7--x-7-----------------------------------|
E|----0--x-0-------------0--x-0----------------------------------------------|

e|---------------------------------------------------------------------------|
B|---------------------------------------------------------------------------|
G|----6-6-6-6-6-6-6-6--------------------------------------------------------|
D|----6-6-6-6-6-6-6-6-5-5-5-5-5-5-5-5----------------------------------------|
A|----4-4-4-4-4-4-4-4-5-5-5-5-5-5-5-5----------------------------------------|
E|--------------------3-3-3-3-3-3-3-3----------------------------------------|

Last time:	


e|---------------------------------------------------------------------------|
B|---------------------------------------------------------------------------|
G|---------------------------------------------------------------------------|
D|----2--2----2--2-----------------------------------------------------------|
A|----2--2----2--2-----------------------------------------------------------|
E|----0--0----0--0-----------------------------------------------------------|

e|---------------------------------------------------------------------------|
B|---------------------------------------------------------------------------|
G|----6-6-6-6-6-6-6-6--------------------------------------------------------|
D|----6-6-6-6-6-6-6-6-5-5-5-5-5-5-5-5----------------------------------------|
A|----4-4-4-4-4-4-4-4-5-5-5-5-5-5-5-5----------------------------------------|
E|--------------------3-3-3-3-3-3-3-3----------------------------------------|



Pre-Chorus

e|---------------------------------------------------------------------------|
B|---12------------------11--------------------------------------------------|
G|---x-------------------x---------------------------------------------------| 4x
D|---9-------------------8---------------------------------------------------|
A|---------------------------------------------------------------------------|
E|---------------------------------------------------------------------------|


2nd Verse

e|---------------------------------------------------------------------------|
B|---------------------------------------------------------------------------|
G|---------------------------------------------------------------------------|
D|---9--7/9---9-9--7/12-9----------------------------------------------------|
A|---7--5/7---7-7--5/10-7----------------------------------------------------|
E|---------------------------------------------------------------------------|

e|---------------------------------------------------------------------------|
B|---------------------------------------------------------------------------|
G|----6-6-6-6-6-6-6-6--------------------------------------------------------|
D|----6-6-6-6-6-6-6-6-5-5-5-5-5-5-5-5----------------------------------------|
A|----4-4-4-4-4-4-4-4-5-5-5-5-5-5-5-5----------------------------------------|
E|--------------------3-3-3-3-3-3-3-3----------------------------------------|

Pre-Chorus

e|---------------------------------------------------------------------------|
B|---12------------------11--------------------------------------------------|
G|---x-------------------x---------------------------------------------------| 4x
D|---9-------------------8---------------------------------------------------|
A|---------------------------------------------------------------------------|
E|---------------------------------------------------------------------------|


e|---16-18-19-----18------16------12-----------------------------------------|
B|---x--x--x------x-------x-------x------------------------------------------|
G|---13-15-16-----15------13------9------------------------------------------|
D|---------------------------------------------------------------------------|
A|---------------------------------------------------------------------------|
E|---------------------------------------------------------------------------|


e|---------------------------------------------------------------------------|
B|-------------------------------------15------------------------------------|
G|---------------------------------12----------------------------------------| 2x
D|-----------------------------/14-------------------------------------------|
A|---2-2-2-2-2-2-2-2-2-2-2-2-------------------------------------------------|
E|---0-0-0-0-0-0-0-0-0-0-0-0-------------------------------------------------|

  pm - - - - - - - - - - - - |



Mighty Main Riff

e|-------------12------------------------------------------------------------|
B|----------12----15-12------12-----12-----12h14h15--------------------------|
G|-------12------------------------------------------------------------------|
D|---/14------------------14-----14-----14-----------------------------------|
A|---------------------------------------------------------------------------|
E|---------------------------------------------------------------------------|

e|---------------------------------------------------------------------------|
B|---------14-------14-------------15-------15-------------------------------|
G|------13-------13-------13----12-------12----------------------------------|
D|---11-------11-------11----12-------12-------------------------------------|
A|---------------------------------------------------------------------------|
E|---------------------------------------------------------------------------|

e|------------12--14--16---19---16-------------------------------------------|
B|---12-14-15------------------------15-14-12--------------------------------|
G|---------------------------------------------------------------------------|
D|---------------------------------------------------------------------------|
A|---------------------------------------------------------------------------|
E|---------------------------------------------------------------------------|

e|------------12----------------12-------------------------------------------|
B|---------12----15-12-------12----15-12----12h14h15-------------------------|
G|------12----------------12-------------------------------------------------|
D|---14----------------14----------------14----------------------------------|
A|---------------------------------------------------------------------------|
E|---------------------------------------------------------------------------|

e|---------------------------------------------------------------------------|
B|---14-------14-------14----------15-------15-------------------------------|
G|------13-------13-------13----12-------12----------------------------------|
D|---------11-------11-------12-------12-------------------------------------|
A|---------------------------------------------------------------------------|
E|---------------------------------------------------------------------------|


Verse

2X

e|---------------------------------------------------------------------------|
B|---------------------------------------------------------------------------|
G|---------------------------------------------------------------------------|
D|----2--x-2-/-9-9--x-9--2--x-2-/-9-9--x-9-----------------------------------|
A|----2--x-2-/-7-7--x-7--2--x-2-/-7-7--x-7-----------------------------------|
E|----0--x-0-------------0--x-0----------------------------------------------|

e|---------------------------------------------------------------------------|
B|---------------------------------------------------------------------------|
G|----6-6-6-6-6-6-6-6--------------------------------------------------------|
D|----6-6-6-6-6-6-6-6-5-5-5-5-5-5-5-5----------------------------------------|
A|----4-4-4-4-4-4-4-4-5-5-5-5-5-5-5-5----------------------------------------|
E|--------------------3-3-3-3-3-3-3-3----------------------------------------|


2X

e|---------------------------------------------------------------------------|
B|---------------------------------------------------------------------------|
G|---------------------------------------------------------------------------|
D|---9--7/9---9-9--7/12-9----------------------------------------------------|
A|---7--5/7---7-7--5/10-7----------------------------------------------------|
E|---------------------------------------------------------------------------|

e|---------------------------------------------------------------------------|
B|---------------------------------------------------------------------------|
G|----6-6-6-6-6-6-6-6--------------------------------------------------------|
D|----6-6-6-6-6-6-6-6-5-5-5-5-5-5-5-5----------------------------------------|
A|----4-4-4-4-4-4-4-4-5-5-5-5-5-5-5-5----------------------------------------|
E|--------------------3-3-3-3-3-3-3-3----------------------------------------|


Outro

e|---------------------------------------------------------------------------|
B|---------------------------------------------------------------------------|
G|---------------------------------------------------------------------------|
D|----------------------------------------------------5-5-5-5-7-7-7-7--------|
A|----2-2-2-2-2-2-2-2-7-7-7-7-7-7-7-7-5-5-5-5-5-5-5-5-3-3-3-3-5-5-5-5--------|
E|----0-0-0-0-0-0-0-0-5-5-5-5-5-5-5-5-3-3-3-3-3-3-3-3------------------------|

e|---------------------------------------------------------------------------|
B|---------------------------------------------------------------------------|
G|---9-------------9---------------------------------------------------------|
D|---9-------------9---------------------------------------------------------|
A|---7-------5h7---7---------------------------------------------------------|
E|---0---5h7-------0---------------------------------------------------------|



That's roughly it. Have fun with this tab and your effect pedals.





************************************

| /   slide up
| \   slide down
| h   hammer-on
| p   pull-off
| ~   vibrato
| +   harmonic
| x   Mute note
| b   Bend
| pb  Pre-bend
| br  Bend release
| pbr Pre-bend release
| brb Bend release bend

************************************
Добавлено: 06.03.2012
Другие материалы по этой песне:
  • Аккорды и текст

Страница создана 06.03.2012
http://primanota.ru/amplifier/consultancy-chords.htm
Привет, Гость.
Предлагаем пройти революционный курс по гитаре.
Подарок от PrimaNota.Ru, забирай!