PrimaNota.ru - самый крупный в мире бесплатный архив песенных текстов, аккордов, табулатур и нот


Amorphis - Tuonela - аккорды и текст, видео

Регистрация Запомнить меня
Войти через:  Facebook Google Twitter Vk Yandex Mail.ru

Amorphis - Tuonela - аккорды и текст, видео

Печатать
Просмотров: 174
Tuonela
Amorphis
  Tomi
[d--------------------------------------------------------------------------------------------
A--------------------------------------------------------------------------------------------
F--------------------------------------------------------------------4----------------------
G----------------------2----------------------3----------------------4----------------------
C----------------------2----------------------3----------------------2----------------------
D-----------------------0----------------------1---------------------------------------------
 Esa                                               
d--------------------------------------------------------------------------------------------
A--------------------------------------------------------------------------------------------
F---------------------------------------------------------------------9----------------------
G-----7---9---10-------------6---7---9--------------7---9---10--------------10---9--10--9----
C7----------------------7----------------------8---------------------------------------------
D--------------------------------------------------------------------------------------------]
  Tomi & Esa with Wah
[d0--0--0--0--0--0--0--0-0--0--0--0--0--0--0--0-----------------------------------------------
A--0--0--0--0--0--0--0-3--3--3--3--3--3--3--3-----------------------------------------------
F--2--2--2--2--2--2--2-2--2--2--2--2--2--2--2-5--5--5--5--5--5--5--5-4--4--4--4--4--4--4--4-
G--2--2--2--2--2--2--2-0--0--0--0--0--0--0--0-5--5--5--5--5--5--5--5-4--4--4--4--4--4--4--4-
C--0--0--0--0--0--0--0-0--0--0--0--0--0--0--0-3--3--3--3--3--3--3--3-2--2--2--2--2--2--2--2-
D--------------------------------------------------------------------------------------------]
  Esa
[d--------------------------------------------------------------------------------------------
A-----------------------------------------------------17/20---15-13-12--10-12-13------13-12--
F14----------14/9-------------------9----------14--------------------------------------------
G-----------------------7h9-10-9-7----10-9-10-9----------------------------------------------
C--------------------------------------------------------------------------------------------
D--------------------------------------------------------------------------------------------]
  Tomi
[d--------------------------------------------------------------------------------------------
A--------------------------------------------------------------------------------------------
F--2--2--2--2--2--2--2-----------------------------------------------4--4--4--4--4--4--4--4-
G--2--2--2--2--2--2--2-2--2--2--2--2--2--2--2-3--3--3--3--3--3--3--3-4--4--4--4--4--4--4--4-
C--0--0--0--0--0--0--0-2--2--2--2--2--2--2--2-3--3--3--3--3--3--3--3-2--2--2--2--2--2--2--2-
D-----------------------0--0--0--0--0--0--0--0-1--1--1--1--1--1--1--1------------------------
 Esa                                               
d--------------------------------------------------------------------------------------------
A--------------------------------------------------------------------------------------------
F--------------------------------------------------------------------------------------------
G-----7---9---10-------------7---9---10-------------6---8---9--------------------------------
C7----------------------8----------------------7---------------------------------------------
D--------------------------------------------------------------------------------------------]
Добавлено: 14.10.2013
Другие материалы по этой песне:
  • Аккорды и текст

Страница создана 21.07.2012
http://primanota.ru/amorphis/tuonela-chords.htm
Привет, Гость.
Предлагаем пройти революционный курс по гитаре.
Подарок от PrimaNota.Ru, забирай!