PrimaNota.ru - самый крупный в мире бесплатный архив песенных текстов, аккордов, табулатур и нот


Amorphis - Summers End - аккорды и текст, таба, видео

Регистрация Запомнить меня
Войти через:  Facebook Google Twitter Vk Yandex Mail.ru

Amorphis - Summers End - аккорды и текст, таба, видео

Печатать
Просмотров: 169
Авторы текста: Pasi Koskinen, Antti Litmanen, Ike Vil
Summers End
Amorphis
Intro
[e-----------------------
B-----------------------
G---------------------9~ } Play 12 times
D-6H8--8--8--6h8-6h8----
A-----------------------
D-----------------------]
When playing this riff 12th time, slide from 21 or 24 to 0 on A-string.

Main part
Guitar 1
[e--------------------------------------------------------------------------------------------
B--------------------------------------------------------------------------------------------
G--8--8--8--6--6--5--5------------------------8--8--8--8--6--6--5--5------------------------
D--8--8--8--6--6--5--5-6--6--6--6--6--6--6--6-8--8--8--8--6--6--5--5-6--6--6--6--6--6--6--6-
A6--6--6--6--4--4--3--3-6--6--6--6--6--6--6--6-6--6--6--6--4--4--3--3-6--6--6--6--6--6--6--6-
D-----------------------6--6--6--6--6--6--6--6------------------------6--6--6--6--6--6--6--6-]
Guitar 2
[e--------------------------------------------------------------------------------------------
B--------------------------------------------------------------------------------------------
G--------------------------------------------------------------------------------------------
D--8--8--8--8--8--8--8-8--8--8--8--8--8--8--8-8--8--8--8--8--8--8--8-8--8--8--8--8--8--8--8-
A--8--8--8--8--8--8--8-8--8--8--8--8--8--8--8-8--8--8--8--8--8--8--8-8--8--8--8--8--8--8--8-
D--8--8--8--8--8--8--8-8--8--8--8--8--8--8--8-8--8--8--8--8--8--8--8-8--8--8--8--8--8--8--8-]
Guitar 1
[e--------------------------------------------------------------------------------------------
B--------------------------------------------------------------------------------------------
G--8--8--8--6--6--5--5------------------------8--8--8--8--6--6--5--5------------------------
D--8--8--8--6--6--5--5-6--6--6--6--6--6--6--6-8--8--8--8--6--6--5--5-6--6--6--6--6--6--6--6-
A6--6--6--6--4--4--3--3-6--6--6--6--6--6--6--6-6--6--6--6--4--4--3--3-6--6--6--6--6--6--6--6-
D-----------------------6--6--6--6--6--6--6--6------------------------6--6--6--6--6--6--6--6-]
Guitar 2
[e--------------------------------------------------------------------------------------------
B--------------------------------------------------------------------------------------------
G--------------------------------------------------------------------------------------------
D--4--4--4--4--4--4--4-4--4--4--4--4--4--4--4-4--4--4--4--4--4--4--4-4--4--4--4--4--4--4--4-
A--4--4--4--4--4--4--4-4--4--4--4--4--4--4--4-4--4--4--4--4--4--4--4-4--4--4--4--4--4--4--4-
D--4--4--4--4--4--4--4-4--4--4--4--4--4--4--4-4--4--4--4--4--4--4--4-4--4--4--4--4--4--4--4-]
Guitar 1
[e--------------------------------------------------------------------------------------------
B--------------------------------------------------------------------------------------------
G--8--8--8--6--6--5--5------------------------8--8--8--8--6--6--5--5------------------------
D--8--8--8--6--6--5--5-6--6--6--6--6--6--6--6-8--8--8--8--6--6--5--5-6--6--6--6--6--6--6--6-
A6--6--6--6--4--4--3--3-6--6--6--6--6--6--6--6-6--6--6--6--4--4--3--3-6--6--6--6--6--6--6--6-
D-----------------------6--6--6--6--6--6--6--6------------------------6--6--6--6--6--6--6--6-]
Guitar 2
[e--------------------------------------------------------------------------------------------
B--------------------------------------------------------------------------------------------
G--------------------------------------------------------------------------------------------
D--1--1--1--1--1--1--1-1--1--1--1--1--1--1--1-1--1--1--1--1--1--1--1-6--6--6--6--6--6--6--6-
A--1--1--1--1--1--1--1-1--1--1--1--1--1--1--1-1--1--1--1--1--1--1--1-6--6--6--6--6--6--6--6-
D--1--1--1--1--1--1--1-1--1--1--1--1--1--1--1-1--1--1--1--1--1--1--1-6--6--6--6--6--6--6--6-]
Guitar1 & Guitar2  2 times.
[e--------------------------------------------------------------------------------------------
B--------------------------------------------------------------------------------------------
G12-----12----12--12----10-----10----10--10-----9------9-----9---9-----7------7-----7---7----
D12-----12----12--12----10-----10----10--10-----9------9-----9---9-----7------7-----7---7----
A10-----10----10--10-----8------8-----8---8-----7------7-----7---7-----5------5-----5---5----
D--------------------------------------------------------------------------------------------]
Guitar 1 & Guitar 2
[e---------------------------------------------------------------------
B---------------------------------------------------------------------
G---------------------------------------------------------------------
D----8----8----8----8---3----3----3----3----5--5--5-3-5-3-5--5--5--5--
A----8----8----8----8---3----3----3----3----5--5--5-3-5-3-5--5--5--5--
D5--8----8----8----8---3----3----3----3----5--5--5-3-5-3-5--5--5--5--]
Добавлено: 20.01.2014
Другие материалы по этой песне:

Страница создана 25.02.2012
http://primanota.ru/amorphis/summers-end-chords.htm
Привет, Гость.
Предлагаем пройти революционный курс по гитаре.
Подарок от PrimaNota.Ru, забирай!