PrimaNota.ru - самый крупный в мире бесплатный архив песенных текстов, аккордов, табулатур и нот


Amoral - Verge - текст песни, таба, видео

Регистрация Запомнить меня
Войти через:  Facebook Google Twitter Vk Yandex Mail.ru

Amoral - Verge - текст песни, таба, видео

Печатать
Просмотров: 184
Уроки эстрадного вокала в Санкт-Петербурге
                 The Verge


                                       Amoral
Guitar (7-string)

     B harm. minor
     E             E  E  E  E   E
E||--------------------------------|
B||--------------------------------|
G||--------------------------------|
D||--------------------------------|
A||-------------------------4h--7--|
E||--0-------------2--3--6---------|
B||--------------------------------|


  E  E  E  E  E   E     E  E  E  E  E   E
---------------------|---------------------|
---------------------|---------------------|
---------------------|---------------------|
---------------------|---------------------|
--------------4h--7--|--------------4h--7--|
--0--2--3--6---------|--0--2--3--6---------|
---------------------|---------------------|


  E   E  E   E  E   E
-----------------------|
-----------------------|
-----------------------|
-----------------------|
-----------------------|
--3h--6--2h--5--1h--4--|
-----------------------|


  E  E  E  E  E   E     E  E  E  E  E   E
---------------------|---------------------|
---------------------|---------------------|
---------------------|---------------------|
---------------------|---------------------|
--------------4h--7--|--------------4h--7--|
--0--2--3--6---------|--0--2--3--6---------|
---------------------|---------------------|


  E  E  E  E  E   E
---------------------|
---------------------|
---------------------|
---------------------|
--------------4h--7--|
--0--2--3--6---------|
---------------------|


  E   E  E   E  E   E
-----------------------|
-----------------------|
-----------------------|
-----------------------|
-----------------------|
--3h--6--2h--5--1h--4--|
-----------------------|


  E  E  E  E  E   E     E  E  E  E  E   E
---------------------|---------------------|
---------------------|---------------------|
---------------------|---------------------|
---------------------|---------------------|
--------------4h--7--|--------------4h--7--|
--0--2--3--6---------|--0--2--3--6---------|
---------------------|---------------------|


  E  E  E  E  E   E
---------------------|
---------------------|
---------------------|
---------------------|
--------------4h--7--|
--0--2--3--6---------|
---------------------|


  E   E  E   E  E   E
-----------------------|
-----------------------|
-----------------------|
-----------------------|
-----------------------|
--3h--6--2h--5--1h--4--|
-----------------------|


  E  E  E  E  E   E     E  E  E  E  E   E
---------------------|---------------------|
---------------------|---------------------|
---------------------|---------------------|
---------------------|---------------------|
--------------4h--7--|--------------4h--7--|
--0--2--3--6---------|--0--2--3--6---------|
---------------------|---------------------|


  E  E  E  E  E   E
---------------------|
---------------------|
---------------------|
---------------------|
--------------4h--7--|
--0--2--3--6---------|
---------------------|


  E   E  E   E  E   E
-----------------------|
-----------------------|
-----------------------|
-----------------------|
-----------------------|
--3h--6--2h--5--1h--4--|
-----------------------|


  E  E  E  E  E   E     E  E  E  E  E   E
---------------------|---------------------|
---------------------|---------------------|
---------------------|---------------------|
---------------------|---------------------|
--------------4h--7--|--------------4h--7--|
--0--2--3--6---------|--0--2--3--6---------|
---------------------|---------------------|


  E  E  E  E  E   E
---------------------|
---------------------|
---------------------|
---------------------|
--------------4h--7--|
--0--2--3--6---------|
---------------------|


  E   E  E   E  E   E
-----------------------|
-----------------------|
-----------------------|
-----------------------|
-----------------------|
--3h--6--2h--5--1h--4--|
-----------------------|


  E  E  E  E  E   E     E  E  E  E  E   E
---------------------|---------------------|
---------------------|---------------------|
---------------------|---------------------|
---------------------|---------------------|
--------------4h--7--|--------------4h--7--|
--0--2--3--6---------|--0--2--3--6---------|
---------------------|---------------------|


  E  E  E  E  E   E
---------------------|
---------------------|
---------------------|
---------------------|
--------------4h--7--|
--0--2--3--6---------|
---------------------|


  E   E  E   E  E   E
-----------------------|
-----------------------|
-----------------------|
-----------------------|
-----------------------|
--3h--6--2h--5--1h--4--|
-----------------------|


  E  E  E  E  E   E     E  E  E  E  E   E
---------------------|---------------------|
---------------------|---------------------|
---------------------|---------------------|
---------------------|---------------------|
--------------4h--7--|--------------4h--7--|
--0--2--3--6---------|--0--2--3--6---------|
---------------------|---------------------|


  E  E  E  E  E   E
---------------------|
---------------------|
---------------------|
---------------------|
--------------4h--7--|
--0--2--3--6---------|
---------------------|


  E   E  E   E  E   E
-----------------------|
-----------------------|
-----------------------|
-----------------------|
-----------------------|
--3h--6--2h--5--1h--4--|
-----------------------|


  E  E  E  E  E   E     E  E  E  E  E   E
---------------------|---------------------|
---------------------|---------------------|
---------------------|---------------------|
---------------------|---------------------|
--------------4h--7--|--------------4h--7--|
--0--2--3--6---------|--0--2--3--6---------|
---------------------|---------------------|


  E  E  E  E  E   E
---------------------|
---------------------|
---------------------|
---------------------|
--------------4h--7--|
--0--2--3--6---------|
---------------------|


  E   E  E   E  E   E     H        Q
-----------------------|----------------|
-----------------------|----------------|
-----------------------|----------------|
-----------------------|----------------|
-----------------------|----------------|
--3h--6--2h--5--1h--4--|----------------|
-----------------------|----------------|


  H        Q       H        Q
----------------|----------------|
----------------|----------------|
----------------|----------------|
----------------|----------------|
----------------|----------------|
----------------|----------------|
----------------|----------------|


  W
-------------------|
-------------------|
-------------------|
-------------------|
-------------------|
-------------------|
-------------------|


  PM         PM PM       PM PM       PM   PM
  S  S E  E  S  S  E  E  S  S  E  E  S  S S
---------------------------------------------|
---------------------------------------------|
---------------------------------------------|
---------------------------------------------|
-------4-----------4-----------4-------------|
-------4-----------4-----------4-------------|
--2----2-----2--2--2-----2--2--2-----2----2--|


  PM PM       PM PM       PM PM       PM   PM
  S  S  E  E  S  S  E  E  S  S  E  E  S  S S
---------------------------------------------|
---------------------------------------------|
---------------------------------------------|
---------------------------------------------|
--------4-----------4-----------4------------|
--------4-----------4-----------4------------|
--2--2--2-----2--2--2-----2--2--2-----2----2-|


  PM PM       PM PM       PM PM       PM   PM
  S  S  E  E  S  S  E  E  S  S  E  E  S  S S
---------------------------------------------|
---------------------------------------------|
---------------------------------------------|
---------------------------------------------|
--------4-----------4-----------4------------|
--------4-----------4-----------4------------|
--2--2--2-----2--2--2-----2--2--2-----2----2-|


  PM PM       PM PM       PM PM       PM   PM
  S  S  E  E  S  S  E  E  S  S  E  E  S  S S
---------------------------------------------|
---------------------------------------------|
---------------------------------------------|
---------------------------------------------|
--------4-----------4-----------4------------|
--------4-----------4-----------4------------|
--2--2--2-----2--2--2-----2--2--2-----2----2-|


  H
-----------|
-----------|
-----------|
-----------|
-----------|
-----------|
-----------|


  PM PM       PM PM       PM PM       PM   PM
  S  S  E  E  S  S  E  E  S  S  E  E  S  S S
---------------------------------------------|
---------------------------------------------|
---------------------------------------------|
---------------------------------------------|
--------4-----------4-----------4------------|
--------4-----------4-----------4------------|
--2--2--2-----2--2--2-----2--2--2-----2----2-|


  PM PM       PM PM       PM PM       PM   PM
  S  S  E  E  S  S  E  E  S  S  E  E  S  S S
---------------------------------------------|
---------------------------------------------|
---------------------------------------------|
---------------------------------------------|
--------4-----------4-----------4------------|
--------4-----------4-----------4------------|
--2--2--2-----2--2--2-----2--2--2-----2----2-|


  PM PM       PM PM       PM PM       PM   PM
  S  S  E  E  S  S  E  E  S  S  E  E  S  S S
---------------------------------------------|
---------------------------------------------|
---------------------------------------------|
---------------------------------------------|
--------4-----------4-----------4------------|
--------4-----------4-----------4------------|
--2--2--2-----2--2--2-----2--2--2-----2----2-|


  PM PM       PM PM       PM PM       PM   PM
  S  S  E  E  S  S  E  E  S  S  E  E  S  S S
---------------------------------------------|
---------------------------------------------|
---------------------------------------------|
---------------------------------------------|
--------4-----------4-----------4------------|
--------4-----------4-----------4------------|
--2--2--2-----2--2--2-----2--2--2-----2----2-|


  PM         PM PM       PM PM       PM   PM
  S  S E  E  S  S  E  E  S  S  E  E  S  S S
---------------------------------------------|
---------------------------------------------|
---------------------------------------------|
---------------------------------------------|
-------4-----------4-----------4-------------|
-------4-----------4-----------4-------------|
--2--2-2-----2--2--2-----2--2--2-----2----2--|


  PM PM       PM PM       PM PM       PM   PM
  S  S  E  E  S  S  E  E  S  S  E  E  S  S S
---------------------------------------------|
---------------------------------------------|
---------------------------------------------|
---------------------------------------------|
--------4-----------4-----------4------------|
--------4-----------4-----------4------------|
--2--2--2-----2--2--2-----2--2--2-----2----2-|


  PM PM       PM PM       PM PM       PM   PM
  S  S  E  E  S  S  E  E  S  S  E  E  S  S S
---------------------------------------------|
---------------------------------------------|
---------------------------------------------|
---------------------------------------------|
--------4-----------4-----------4------------|
--------4-----------4-----------4------------|
--2--2--2-----2--2--2-----2--2--2-----2----2-|


  PM PM       PM PM       PM PM       PM   PM
  S  S  E  E  S  S  E  E  S  S  E  E  S  S S
---------------------------------------------|
---------------------------------------------|
---------------------------------------------|
---------------------------------------------|
--------4-----------4-----------4------------|
--------4-----------4-----------4------------|
--2--2--2-----2--2--2-----2--2--2-----2----2-|


  PM PM       PM PM       PM PM       PM   PM
  S  S  E  E  S  S  E  E  S  S  E  E  S  S S
---------------------------------------------|
---------------------------------------------|
---------------------------------------------|
---------------------------------------------|
--------4-----------4-----------4------------|
--------4-----------4-----------4------------|
--2--2--2-----2--2--2-----2--2--2-----2----2-|


  PM PM       PM PM       PM PM       PM   PM
  S  S  E  E  S  S  E  E  S  S  E  E  S  S S
---------------------------------------------|
---------------------------------------------|
---------------------------------------------|
---------------------------------------------|
--------4-----------4-----------4------------|
--------4-----------4-----------4------------|
--2--2--2-----2--2--2-----2--2--2-----2----2-|


  PM PM       PM PM       PM PM       PM   PM
  S  S  E  E  S  S  E  E  S  S  E  E  S  S S
---------------------------------------------|
---------------------------------------------|
---------------------------------------------|
---------------------------------------------|
--------4-----------4-----------4------------|
--------4-----------4-----------4------------|
--2--2--2-----2--2--2-----2--2--2-----2----2-|


  PM PM       PM PM       PM PM       PM   PM
  S  S  E  E  S  S  E  E  S  S  E  E  S  S S
---------------------------------------------|
---------------------------------------------|
---------------------------------------------|
---------------------------------------------|
--------4-----------4-----------4------------|
--------4-----------4-----------4------------|
--2--2--2-----2--2--2-----2--2--2-----2----2-|


  PM PM       PM PM       PM PM       PM   PM
  S  S  E  E  S  S  E  E  S  S  E  E  S  S S
---------------------------------------------|
---------------------------------------------|
---------------------------------------------|
---------------------------------------------|
--------4-----------4-----------4------------|
--------4-----------4-----------4------------|
--2--2--2-----2--2--2-----2--2--2-----2----2-|


  PM PM       PM PM       PM PM       PM   PM
  S  S  E  E  S  S  E  E  S  S  E  E  S  S S
---------------------------------------------|
---------------------------------------------|
---------------------------------------------|
---------------------------------------------|
--------4-----------4-----------4------------|
--------4-----------4-----------4------------|
--2--2--2-----2--2--2-----2--2--2-----2----2-|


  PM PM       PM PM       PM PM       PM   PM
  S  S  E  E  S  S  E  E  S  S  E  E  S  S S
---------------------------------------------|
---------------------------------------------|
---------------------------------------------|
---------------------------------------------|
--------4-----------4-----------4------------|
--------4-----------4-----------4------------|
--2--2--2-----2--2--2-----2--2--2-----2----2-|


  PM PM       PM PM       PM PM       PM   PM
  S  S  E  E  S  S  E  E  S  S  E  E  S  S S
---------------------------------------------|
---------------------------------------------|
---------------------------------------------|
---------------------------------------------|
--------4-----------4-----------4------------|
--------4-----------4-----------4------------|
--2--2--2-----2--2--2-----2--2--2-----2----2-|


  PM PM       PM PM       PM PM       PM   PM
  S  S  E  E  S  S  E  E  S  S  E  E  S  S S
---------------------------------------------|
---------------------------------------------|
---------------------------------------------|
---------------------------------------------|
--------4-----------4-----------4------------|
--------4-----------4-----------4------------|
--2--2--2-----2--2--2-----2--2--2-----2----2-|


  PM PM       PM PM       PM PM       PM   PM
  S  S  E  E  S  S  E  E  S  S  E  E  S  S S
---------------------------------------------|
---------------------------------------------|
---------------------------------------------|
---------------------------------------------|
--------4-----------4-----------4------------|
--------4-----------4-----------4------------|
--2--2--2-----2--2--2-----2--2--2-----2----2-|


  PM PM       PM PM       PM PM       PM   PM
  S  S  E  E  S  S  E  E  S  S  E  E  S  S S
---------------------------------------------|
---------------------------------------------|
---------------------------------------------|
---------------------------------------------|
--------4-----------4-----------4------------|
--------4-----------4-----------4------------|
--2--2--2-----2--2--2-----2--2--2-----2----2-|


  PM PM       PM PM       PM PM       PM   PM
  S  S  E  E  S  S  E  E  S  S  E  E  S  S S
---------------------------------------------|
---------------------------------------------|
---------------------------------------------|
---------------------------------------------|
--------4-----------4-----------4------------|
--------4-----------4-----------4------------|
--2--2--2-----2--2--2-----2--2--2-----2----2-|


  W.                  W
-------------------|-------------------|
-------------------|-------------------|
-------------------|-------------------|
-------------------|-------------------|
--4----------------|--L----------------|
--4----------------|--L----------------|
--2----------------|--L----------------|


  W
-------------------|
-------------------|
-------------------|
-------------------|
--L----------------|
--L----------------|
--L----------------|


  Blends in with Atrocity Evolution.
  W.
-------------------------------------|
-------------------------------------|
-------------------------------------|
-------------------------------------|
-------------------------------------|
-------------------------------------|
-------------------------------------|


              Atrocity Evolution tabbed too !
  PM PM PM PM
  S  S  S  S  S
---------------------------------------------|
---------------------------------------------|
---------------------------------------------|
--------------2------------------------------|
---------------------------------------------|
--0--0--0--0---------------------------------|
---------------------------------------------|


  PM PM PM PM         PM PM
  S  S  S  S  S S S S S  S  Q    E
------------------------------------|
------------------------------------|
------------------------------------|
--------------2-3-2-----------------|
--------------------4-------5----6--|
--0--0--0--0----------0--0--5----6--|
----------------------------3----4--|


  PM PM PM PM         PM PM PM PM     PM PM
  S  S  S  S  S S S S S  S  S  S  S S S  S
--------------------------------------------|
--------------------------------------------|
--------------------------------------------|
--------------2-3-2-------------------------|
--------------------4-------------5-3-------|
--0--0--0--0----------0--0--0--0------4--3--|
--------------------------------------------|


  PM PM
  S  S  E.  E.  Q    E  E
---------------------------||
---------------------------||
---------------------------||
--------6---5---8----8--8--||
--------6---5---8----8--8--||
--0--0--4---3---6----6--6--||
---------------------------||


                 The Verge


                                       Amoral
Guitar (6-string)

     E  E  E  E  E   E
E||---------------------|
B||---------------------|
G||---------------------|
D||---------------------|
A||--------------4h--7--|
E||--0--2--3--6---------|


  E  E  E  E  E   E     E  E  E  E  E   E
---------------------|---------------------|
---------------------|---------------------|
---------------------|---------------------|
---------------------|---------------------|
--------------4h--7--|--------------4h--7--|
--0--2--3--6---------|--0--2--3--6---------|


  E   E  E   E  E   E
-----------------------|
-----------------------|
-----------------------|
-----------------------|
-----------------------|
--3h--6--2h--5--1h--4--|


  E  E  E  E  E   E     E  E  E  E  E   E
---------------------|---------------------|
---------------------|---------------------|
---------------------|---------------------|
---------------------|---------------------|
--------------4h--7--|--------------4h--7--|
--0--2--3--6---------|--0--2--3--6---------|


  E  E  E  E  E   E
---------------------|
---------------------|
---------------------|
---------------------|
--------------4h--7--|
--0--2--3--6---------|


  E   E  E   E  E   E
-----------------------|
-----------------------|
-----------------------|
-----------------------|
-----------------------|
--3h--6--2h--5--1h--4--|


  E  E  E  E  E   E     E  E  E  E  E   E
---------------------|---------------------|
---------------------|---------------------|
---------------------|---------------------|
--------------2h--5--|--------------2h--5--|
---------------------|---------------------|
--0--2--3--6---------|--0--2--3--6---------|


  E  E  E  E  E   E
---------------------|
---------------------|
---------------------|
--------------2h--5--|
---------------------|
--0--2--3--6---------|


  E    E  E   E  E   E
------------------------|
------------------------|
------------------------|
------------------------|
------------------------|
--7h--10--6h--9--5h--8--|


  E  E  E  E  E   E     E  E  E  E  E   E
---------------------|---------------------|
---------------------|---------------------|
---------------------|---------------------|
--------------2h--5--|--------------2h--5--|
---------------------|---------------------|
--0--2--3--6---------|--0--2--3--6---------|


  E  E  E  E  E   E
---------------------|
---------------------|
---------------------|
--------------2h--5--|
---------------------|
--0--2--3--6---------|


  E    E  E   E  E   E
------------------------|
------------------------|
------------------------|
------------------------|
------------------------|
--7h--10--6h--9--5h--8--|


  E  E  E  E  E   E     E  E  E  E  E   E
---------------------|---------------------|
---------------------|---------------------|
---------------------|---------------------|
--------------2h--5--|--------------2h--5--|
---------------------|---------------------|
--0--2--3--6---------|--0--2--3--6---------|


  E  E  E  E  E   E
---------------------|
---------------------|
---------------------|
--------------2h--5--|
---------------------|
--0--2--3--6---------|


  E    E  E   E  E   E
------------------------|
------------------------|
------------------------|
------------------------|
------------------------|
--7h--10--6h--9--5h--8--|


  E  E  E  E  E   E     E  E  E  E  E   E
---------------------|---------------------|
---------------------|---------------------|
---------------------|---------------------|
--------------2h--5--|--------------2h--5--|
---------------------|---------------------|
--0--2--3--6---------|--0--2--3--6---------|


  E  E  E  E  E   E
---------------------|
---------------------|
---------------------|
--------------2h--5--|
---------------------|
--0--2--3--6---------|


  E    E  E   E  E   E
------------------------|
------------------------|
------------------------|
------------------------|
------------------------|
--7h--10--6h--9--5h--8--|


  E  E  E  E  E   E     E  E  E  E  E   E
---------------------|---------------------|
---------------------|---------------------|
---------------------|---------------------|
--------------2h--5--|--------------2h--5--|
---------------------|---------------------|
--0--2--3--6---------|--0--2--3--6---------|


  E  E  E  E  E   E
---------------------|
---------------------|
---------------------|
--------------2h--5--|
---------------------|
--0--2--3--6---------|


  E    E  E   E  E   E
------------------------|
------------------------|
------------------------|
------------------------|
------------------------|
--7h--10--6h--9--5h--8--|


  E  E  E  E  E   E     E  E  E  E  E   E
---------------------|---------------------|
---------------------|---------------------|
---------------------|---------------------|
--------------2h--5--|--------------2h--5--|
---------------------|---------------------|
--0--2--3--6---------|--0--2--3--6---------|


  E  E  E  E  E   E
---------------------|
---------------------|
---------------------|
--------------2h--5--|
---------------------|
--0--2--3--6---------|


  E    E  E   E  E   E     H        Q
------------------------|----------------|
------------------------|----------------|
------------------------|----------------|
------------------------|----------------|
------------------------|----------------|
--7h--10--6h--9--5h--8--|----------------|


  H        Q       H        Q
----------------|----------------|
----------------|----------------|
----------------|----------------|
----------------|----------------|
----------------|----------------|
----------------|----------------|


  W
-------------------|
-------------------|
-------------------|
-------------------|
-------------------|
-------------------|


  W                H
----------------------------|
----------------------------|
----------------------------|
----------------------------|
----------------------------|
----------------------------|


  W                H
----------------------------|
----------------------------|
----------------------------|
----------------------------|
----------------------------|
----------------------------|


  W                H
----------------------------|
----------------------------|
----------------------------|
----------------------------|
----------------------------|
----------------------------|


  W                H           H
----------------------------|-----------|
----------------------------|-----------|
----------------------------|-----------|
----------------------------|-----------|
----------------------------|-----------|
----------------------------|-----------|


  8/4
  W.
-------------------|
-------------------|
--6----------------|
--6----------------|
--4----------------|
-------------------|


            More guitar pro bugs...
  H         W
-----------(x)---------------------|
--L--------(x)---------------------|
--L--------(x)---------------------|
--L--------(x)---------------------|
--L--------------------------------|
------------5----------------------|


  W                H
----------------------------|
----------------------------|
----------------------------|
----------------------------|
----------------------------|
--L----------------4--------|


  W.
-------------------|
-------------------|
-------------------|
-------------------|
-------------------|
--L----------------|


  W                W
------------------------------------|
------------------------------------|
------------------------------------|
------------------------------------|
------------------------------------|
--2----------------L----------------|


  W.
-------------------|
-------------------|
-------------------|
-------------------|
--4----------------|
-------------------|


  H        W
----------------------------|
----------------------------|
----------------------------|
--L-------------------------|
--L-------------------------|
-----------5----------------|


  W                H
----------------------------|
----------------------------|
----------------------------|
----------------------------|
----------------------------|
--L----------------4--------|


  W.
-------------------|
-------------------|
-------------------|
-------------------|
-------------------|
--L----------------|


  W                W
------------------------------------|
------------------------------------|
------------------------------------|
------------------------------------|
------------------------------------|
--2----------------L----------------|


  W.
-------------------|
-------------------|
--6----------------|
--6----------------|
--4----------------|
-------------------|


  H        W
----------------------------|
--L-------------------------|
--L-------------------------|
--L-------------------------|
--L--------6----------------|
-----------5----------------|


  W                H
----------------------------|
----------------------------|
----------------------------|
----------------------------|
--L----------------4--------|
--L----------------4--------|


  W.
-------------------|
-------------------|
-------------------|
-------------------|
--L----------------|
--L----------------|


  W                W
------------------------------------|
------------------------------------|
------------------------------------|
--4----------------L----------------|
------------------------------------|
--2----------------L----------------|


  W.
-------------------|
-------------------|
--6----------------|
--6----------------|
--4----------------|
-------------------|


  H        W
----------------------------|
----------------------------|
--L-------------------------|
--L-------------------------|
--L--------6----------------|
-----------5----------------|


  W                H
----------------------------|
-------------------9--------|
----------------------------|
-------------------6--------|
--L-------------------------|
--L----------------4--------|


  W.
-------------------|
--L----------------|
-------------------|
--L----------------|
-------------------|
--L----------------|


  W                W
------------------------------------|
------------------------------------|
------------------------------------|
------------------------------------|
--4----------------L----------------|
--2----------------L----------------|


  W.                  W
-------------------|-------------------|
-------------------|-------------------|
--6----------------|--L----------------|
--6----------------|--L----------------|
--4----------------|--L----------------|
-------------------|-------------------|


  W
-------------------|
-------------------|
--L----------------|
--L----------------|
--L----------------|
-------------------|


  W                H
----------------------------|
----------------------------|
----------------------------|
----------------------------|
----------------------------|
----------------------------|


  PM PM PM PM         PM PM PM PM     PM PM
  S  S  S  S  S S S S S  S  S  S  S S S  S
--------------------------------------------|
--------------------------------------------|
--------------------------------------------|
--------------2-3-2-------------------------|
--------------------4-------------5-3-------|
--0--0--0--0----------0--0--0--0------4--3--|


  PM PM PM PM         PM PM
  S  S  S  S  S S S S S  S  Q    E
------------------------------------|
------------------------------------|
------------------------------------|
--------------2-3-2---------7----8--|
--------------------4-------5----6--|
--0--0--0--0----------0--0--5----6--|


  PM PM PM PM         PM PM PM PM     PM PM
  S  S  S  S  S S S S S  S  S  S  S S S  S
--------------------------------------------|
--------------------------------------------|
--------------------------------------------|
--------------2-3-2-------------------------|
--------------------4-------------5-3-------|
--0--0--0--0----------0--0--0--0------4--3--|


  PM PM
  S  S  E.  E.  Q    E  E
---------------------------||
---------------------------||
---------------------------||
--------6---5---8----8--8--||
--------6---5---8----8--8--||
--0--0--4---3---6----6--6--||


Duration Legend
---------------
W - whole
H - half
Q - quarter
E - 8th
S - 16th
T - 32nd
X - 64th
. - note dotted
|-n-|  - n-tuplets


Tablature Legend
----------------
L - tied note
x - dead note
g - grace note
(n) - ghost note
> - accentuded note
NH - natural harmonic
AH - artificial harmonic
TH - tapped harmonic
SH - semi harmonic
PH - pitch harmonic
h - hammer on
p - pull off
b - bend
br - bendRelease
pb - preBend
pbr - preBendRelease
brb - bendReleaseBend
\n/ - tremolo bar dip
\n - tremolo bar dive
-/n - tremolo bar Release up
/n\ - tremolo bar inverted dip
/n - tremolo bar return
-\n - tremolo bar Release down
S - shift slide
s - legato slide
/ -  slide into from below or out of upwards
\ -  slide into from above or out of downwards
~ - vibrato
W - wide vibrato
tr - trill
TP - tremolo picking
T - tapping
S - slap
P - pop
< - fade in
^ - brush up
v - brush down
Добавлено: 23.06.2012
Другие материалы по этой песне:

Страница создана 07.04.2012
http://primanota.ru/amoral/verge-chords.htm
Привет, Гость.
Предлагаем пройти революционный курс по гитаре.
Подарок от PrimaNota.Ru, забирай!