PrimaNota.ru - самый крупный в мире бесплатный архив песенных текстов, аккордов, табулатур и нот


Amoral - Denial 101 - таба, видео

Регистрация Запомнить меня
Войти через:  Facebook Google Twitter Vk Yandex Mail.ru

Amoral - Denial 101 - таба, видео

Печатать
Просмотров: 122
                Denial 101


                                       Amoral
Guitar (7-string)

     S S S S S S  S S H
E||----------------------------|
B||----------------------------|
G||----9-----7-9-10-9-L--------|
D||----------------------------|
A||----7-----5-7--8-7-L--------|
E||--0---0-0-------------------|
B||----------------------------|


  S S S S S S  S S H
----------------------------|
----------------------------|
----9-----7-9-10-9-L--------|
----------------------------|
----7-----5-7--8-7-L--------|
--0---0-0-------------------|
----------------------------|


  S S S S S S  S S H
----------------------------|
----------------------------|
----9-----7-9-10-9-L--------|
----------------------------|
----7-----5-7--8-7-L--------|
--0---0-0-------------------|
----------------------------|


  S S S S S S  S S Q.      E
------------------------------|
------------------------------|
----9-----7-9-10-9-LS------x--|
------------------------------|
----7-----5-7--8-7-LS------x--|
--0---0-0---------------------|
------------------------------|


  S S S S S S S S S S S S S S S S
----------------------------------|
----------------------------------|
----------------------------------|
----2-----0-2-3-2---2-----5---3-2-|
----2-----0-2-3-2---2-----5---3-2-|
--0---0-0---------0---0-0---0-----|
----------------------------------|


  S S S S S S S S S S S S S S S S
----------------------------------|
----------------------------------|
----------------------------------|
----2-----0-2-3-2---2-----6---3-2-|
----2-----0-2-3-2---2-----6---3-2-|
--0---0-0---------0---0-0---0-----|
----------------------------------|


  S S S S S S S S S S S S S S S S
----------------------------------|
----------------------------------|
----------------------------------|
----2-----0-2-3-2---2-----5---3-2-|
----2-----0-2-3-2---2-----5---3-2-|
--0---0-0---------0---0-0---0-----|
----------------------------------|


  S S S S S S S S S S S S S S S S
----------------------------------|
----------------------------------|
----------------------------------|
----2-----0-2-3-2---2-----6---3-2-|
----2-----0-2-3-2---2-----6---3-2-|
--0---0-0---------0---0-0---0-----|
----------------------------------|


  S S S S S S S S S S S S S S S S
----------------------------------|
----------------------------------|
----------------------------------|
----2-----0-2-3-2---2-----5---3-2-|
----2-----0-2-3-2---2-----5---3-2-|
--0---0-0---------0---0-0---0-----|
----------------------------------|


  S S S S S S S S S S S S S S S S
----------------------------------|
----------------------------------|
----------------------------------|
----2-----0-2-3-2---2-----6---3-2-|
----2-----0-2-3-2---2-----6---3-2-|
--0---0-0---------0---0-0---0-----|
----------------------------------|


  S S S S S S S S S S S S S S S S
----------------------------------|
----------------------------------|
----------------------------------|
----2-----0-2-3-2---2-----5---3-2-|
----2-----0-2-3-2---2-----5---3-2-|
--0---0-0---------0---0-0---0-----|
----------------------------------|


  S S S S S S S S S S S S S S S S
----------------------------------|
----------------------------------|
----------------------------------|
----2-----0-2-3-2---2-----6---3-2-|
----2-----0-2-3-2---2-----6---3-2-|
--0---0-0---------0---0-0---0-----|
----------------------------------|


  E.  S S S H        E
------------------------|
------------------------|
------------------------|
------------------------|
--2---2-7-6-5--------L--|
--2---2-7-6-5--------L--|
--0---0-5-4-3--------L--|


  E  E  H.
---------------------|
---------------------|
---------------------|
---------------------|
--2------------------|
--2------------------|
--0------------------|


  E.  S S S H        E
------------------------|
------------------------|
------------------------|
------------------------|
--2---2-7-6-5--------L--|
--2---2-7-6-5--------L--|
--0---0-5-4-3--------L--|


  PM PM
  S  S  E  H        E.   S
---------------------------|
---------------------------|
---------------------------|
---------------------------|
--------------------5S---x-|
--------------------5S---x-|
--0--0---------------------|


  E.  S S S H        E
------------------------|
------------------------|
------------------------|
------------------------|
--2---2-7-6-5--------L--|
--2---2-7-6-5--------L--|
--0---0-5-4-3--------L--|


  E  E  H.
---------------------|
---------------------|
---------------------|
---------------------|
--2------------------|
--2------------------|
--0------------------|


  E.  S S S H        E
------------------------|
------------------------|
------------------------|
------------------------|
--2---2-7-6-5--------L--|
--2---2-7-6-5--------L--|
--0---0-5-4-3--------L--|


  PM PM PM     PM   PM   PM   PM   PM PM PM P
  T  T  T  T S S  S S  S S  S S  S S  S  S  S
----------------------------------------------|
----------------------------------------------|
----------------------------------------------|
----------------------------------------------|
----------------------------------------------|
--2--2--2------2----2----2----2----2--2--2--2-|
--0--0--0------0----0----0----0----0--0--0--0-|


  E.  S S S S S H
-------------------------|
-------------------------|
-------------------------|
--7---L------------------|
--7---L-3-4-3-L-L--------|
--5---L-3-4-3-L-L--------|
--------1-2-1-L-L--------|


      PM PM     PM PM PM     PM     PM PM
  S S S  S  S S S  S  S  S S S  S S S  S
------------------------------------------|
------------------------------------------|
------------------------------------------|
------------------------------------------|
--L-6-------6-5----------9------9-8-------|
--L-6-------6-5----------9------9-8-------|
--L-4-4--4--4-3-3--0--0--7-0-7--7-6-0--0--|


  E.  S S S S S H
-------------------------|
-------------------------|
-------------------------|
--7---L------------------|
--7---L-3-4-3-L-L--------|
--5---L-3-4-3-L-L--------|
--------1-2-1-L-L--------|


      PM PM     PM PM PM     PM     PM PM
  S S S  S  S S S  S  S  S S S  S S S  S
------------------------------------------|
------------------------------------------|
------------------------------------------|
------------------------------------------|
--L-6-------6-5----------9------9-8-------|
--L-6-------6-5----------9------9-8-------|
--L-4-4--4--4-3-3--0--0--7-0-7--7-6-6--6--|


  E.  S S S S S H
-------------------------|
-------------------------|
-------------------------|
--7---L------------------|
--7---L-3-4-3-L-L--------|
--5---L-3-4-3-L-L--------|
--------1-2-1-L-L--------|


      PM PM     PM PM PM     PM     PM PM
  S S S  S  S S S  S  S  S S S  S S S  S
------------------------------------------|
------------------------------------------|
------------------------------------------|
------------------------------------------|
--L-6-------6-5----------9------9-8-------|
--L-6-------6-5----------9------9-8-------|
--L-4-4--4--4-3-3--0--0--7-0-7--7-6-0--0--|


  E.  S S S S S H
-------------------------|
-------------------------|
-------------------------|
--7---L------------------|
--7---L-3-4-3-L-L--------|
--5---L-3-4-3-L-L--------|
--------1-2-1-L-L--------|


      PM PM     PM PM PM     PM     PM PM
  S S S  S  S S S  S  S  S S S  S S S  S
------------------------------------------|
------------------------------------------|
------------------------------------------|
------------------------------------------|
--L-6-------6-5----------9------9-8-------|
--L-6-------6-5----------9------9-8-------|
--L-4-4--4--4-3-3--0--0--7-0-7--7-6-6--6--|


  S S S S S S S S S S S S S S S S
----------------------------------|
----------------------------------|
----------------------------------|
----8-8-8-8-5-5-5-----------------|
----8-8-8-8-5-5-5---7-7-7-7-7-7-7-|
----6-6-6-6-3-3-3---7-7-7-7-7-7-7-|
--------------------5-5-5-5-5-5-5-|


  S S S S S S S S S S S S S S S S
----------------------------------|
----------------------------------|
----------------------------------|
----8-8-8-8-5-5-5-----------------|
----8-8-8-8-5-5-5---7-7-7-7-8-8-7-|
----6-6-6-6-3-3-3---7-7-7-7-8-8-7-|
--------------------5-5-5-5-6-6-5-|


  S S S S S S S S S S S S S S S S
----------------------------------|
----------------------------------|
----------------------------------|
----8-8-8-8-5-5-5-----------------|
----8-8-8-8-5-5-5---7-7-7-7-7-7-7-|
----6-6-6-6-3-3-3---7-7-7-7-7-7-7-|
--------------------5-5-5-5-5-5-5-|


  S S S S S S S S S  S  S  S  S  S  S  S
-----------------------------------------|
-----------------------------------------|
-----------------------------------------|
----8-8-8-8-5-5-5---11-11-11-11-11-11-11-|
----8-8-8-8-5-5-5---11-11-11-11-11-11-11-|
----6-6-6-6-3-3-3----9--9--9--9--9--9--9-|
-----------------------------------------|


  S S S S S S S S S S S S S S S S
----------------------------------|
----------------------------------|
----------------------------------|
----8-8-8-8-5-5-5-----------------|
----8-8-8-8-5-5-5---7-7-7-7-7-7-7-|
----6-6-6-6-3-3-3---7-7-7-7-7-7-7-|
--------------------5-5-5-5-5-5-5-|


  S S S S S S S S S S S S S S S S
----------------------------------|
----------------------------------|
----------------------------------|
----8-8-8-8-5-5-5-----------------|
----8-8-8-8-5-5-5---7-7-7-7-8-8-7-|
----6-6-6-6-3-3-3---7-7-7-7-8-8-7-|
--------------------5-5-5-5-6-6-5-|


  S S S S S S S S S S S S S S S S
----------------------------------|
----------------------------------|
----------------------------------|
----8-8-8-8-5-5-5-----------------|
----8-8-8-8-5-5-5---7-7-7-7-7-7-7-|
----6-6-6-6-3-3-3---7-7-7-7-7-7-7-|
--------------------5-5-5-5-5-5-5-|


  S S S S S S S S S  S  S  S  S  S  S  S
-----------------------------------------|
-----------------------------------------|
-----------------------------------------|
----8-8-8-8-5-5-5---11-11-11-11-11-11-11-|
----8-8-8-8-5-5-5---11-11-11-11-11-11-11-|
----6-6-6-6-3-3-3----9--9--9--9--9--9--9-|
-----------------------------------------|


  S S S S  S S  S  S  S  S  S  S  S  E.
------------------------------------------|
--0-0-6-0-10-0-12-13-12-10-13-12-10-12~---|
------------------------------------------|
------------------------------------------|
------------------------------------------|
------------------------------------------|
------------------------------------------|


   S  S  S  E.    S  S  S  E.    S E.
----------------------------------------|
--13-12-10-12~---13-12-10-12~---10-7~---|
----------------------------------------|
----------------------------------------|
----------------------------------------|
----------------------------------------|
----------------------------------------|


  E.  S S S H        E
------------------------|
------------------------|
------------------------|
------------------------|
--2---2-7-6-5--------L--|
--2---2-7-6-5--------L--|
--0---0-5-4-3--------L--|


  PM PM
  S  S  E  Q    Q     Q
---------------------------|
---------------------------|
---------------------------|
---------------------------|
----------------9S----x----|
----------------7S----x----|
--0--0---------------------|


  E.  S S S H        E
------------------------|
------------------------|
------------------------|
------------------------|
--2---2-7-6-5--------L--|
--2---2-7-6-5--------L--|
--0---0-5-4-3--------L--|


  E  E  H.
---------------------|
---------------------|
---------------------|
---------------------|
--2------------------|
--2------------------|
--0------------------|


  E.  S S S H        E
------------------------|
------------------------|
------------------------|
------------------------|
--2---2-7-6-5--------L--|
--2---2-7-6-5--------L--|
--0---0-5-4-3--------L--|


  PM PM
  S  S  E  H.
------------------------|
------------------------|
------------------------|
------------------------|
------------------------|
------------------------|
--0--0------------------|


  E.  S S S H        E
------------------------|
------------------------|
------------------------|
------------------------|
--2---2-7-6-5--------L--|
--2---2-7-6-5--------L--|
--0---0-5-4-3--------L--|


  E  E  H.
---------------------|
---------------------|
---------------------|
---------------------|
--2------------------|
--2------------------|
--0------------------|


  E.  S S S H        E
------------------------|
------------------------|
------------------------|
------------------------|
--2---2-7-6-5--------L--|
--2---2-7-6-5--------L--|
--0---0-5-4-3--------L--|


  PM PM PM     PM   PM   PM   PM   PM PM PM P
  T  T  T  T S S  S S  S S  S S  S S  S  S  S
----------------------------------------------|
----------------------------------------------|
----------------------------------------------|
----------------------------------------------|
----------------------------------------------|
--2--2--2------2----2----2----2----2--2--2--2-|
--0--0--0------0----0----0----0----0--0--0--0-|


  E.  S S S S S H
-------------------------|
-------------------------|
-------------------------|
--7---L------------------|
--7---L-3-4-3-L-L--------|
--5---L-3-4-3-L-L--------|
--------1-2-1-L-L--------|


      PM PM     PM PM PM     PM     PM PM
  S S S  S  S S S  S  S  S S S  S S S  S
------------------------------------------|
------------------------------------------|
------------------------------------------|
------------------------------------------|
--L-6-------6-5----------9------9-8-------|
--L-6-------6-5----------9------9-8-------|
--L-4-4--4--4-3-3--0--0--7-0-7--7-6-0--0--|


  E.  S S S S S H
-------------------------|
-------------------------|
-------------------------|
--7---L------------------|
--7---L-3-4-3-L-L--------|
--5---L-3-4-3-L-L--------|
--------1-2-1-L-L--------|


      PM PM     PM PM PM     PM     PM PM
  S S S  S  S S S  S  S  S S S  S S S  S
------------------------------------------|
------------------------------------------|
------------------------------------------|
------------------------------------------|
--L-6-------6-5----------9------9-8-------|
--L-6-------6-5----------9------9-8-------|
--L-4-4--4--4-3-3--0--0--7-0-7--7-6-6--6--|


  E.  S S S S S H
-------------------------|
-------------------------|
-------------------------|
--7---L------------------|
--7---L-3-4-3-L-L--------|
--5---L-3-4-3-L-L--------|
--------1-2-1-L-L--------|


      PM PM     PM PM PM     PM     PM PM
  S S S  S  S S S  S  S  S S S  S S S  S
------------------------------------------|
------------------------------------------|
------------------------------------------|
------------------------------------------|
--L-6-------6-5----------9------9-8-------|
--L-6-------6-5----------9------9-8-------|
--L-4-4--4--4-3-3--0--0--7-0-7--7-6-0--0--|


  E.  S S S S S H
-------------------------|
-------------------------|
-------------------------|
--7---L------------------|
--7---L-3-4-3-L-L--------|
--5---L-3-4-3-L-L--------|
--------1-2-1-L-L--------|


      PM PM     PM PM PM     PM     PM PM
  S S S  S  S S S  S  S  S S S  S S S  S
------------------------------------------|
------------------------------------------|
------------------------------------------|
------------------------------------------|
--L-6-------6-5----------9------9-8-------|
--L-6-------6-5----------9------9-8-------|
--L-4-4--4--4-3-3--0--0--7-0-7--7-6-6--6--|


  S S S S S S S S S S S S S S S S
----------------------------------|
----------------------------------|
----------------------------------|
----8-8-8-8-5-5-5-----------------|
----8-8-8-8-5-5-5---7-7-7-7-7-7-7-|
----6-6-6-6-3-3-3---7-7-7-7-7-7-7-|
--------------------5-5-5-5-5-5-5-|


  S S S S S S S S S S S S S S S S
----------------------------------|
----------------------------------|
----------------------------------|
----8-8-8-8-5-5-5-----------------|
----8-8-8-8-5-5-5---7-7-7-7-8-8-7-|
----6-6-6-6-3-3-3---7-7-7-7-8-8-7-|
--------------------5-5-5-5-6-6-5-|


  S S S S S S S S S S S S S S S S
----------------------------------|
----------------------------------|
----------------------------------|
----8-8-8-8-5-5-5-----------------|
----8-8-8-8-5-5-5---7-7-7-7-7-7-7-|
----6-6-6-6-3-3-3---7-7-7-7-7-7-7-|
--------------------5-5-5-5-5-5-5-|


  S S S S S S S S S  S  S  S  S  S  S  S
-----------------------------------------|
-----------------------------------------|
-----------------------------------------|
----8-8-8-8-5-5-5---11-11-11-11-11-11-11-|
----8-8-8-8-5-5-5---11-11-11-11-11-11-11-|
----6-6-6-6-3-3-3----9--9--9--9--9--9--9-|
-----------------------------------------|


  S S S S S S S S S S S S S S S S
----------------------------------|
----------------------------------|
----------------------------------|
----8-8-8-8-5-5-5-----------------|
----8-8-8-8-5-5-5---7-7-7-7-7-7-7-|
----6-6-6-6-3-3-3---7-7-7-7-7-7-7-|
--------------------5-5-5-5-5-5-5-|


  S S S S S S S S S S S S S S S S
----------------------------------|
----------------------------------|
----------------------------------|
----8-8-8-8-5-5-5-----------------|
----8-8-8-8-5-5-5---7-7-7-7-8-8-7-|
----6-6-6-6-3-3-3---7-7-7-7-8-8-7-|
--------------------5-5-5-5-6-6-5-|


  S S S S S S S S S S S S S S S S
----------------------------------|
----------------------------------|
----------------------------------|
----8-8-8-8-5-5-5-----------------|
----8-8-8-8-5-5-5---7-7-7-7-7-7-7-|
----6-6-6-6-3-3-3---7-7-7-7-7-7-7-|
--------------------5-5-5-5-5-5-5-|


  S S S S S S S S S  S  S  S  S  S  S  S
-----------------------------------------|
-----------------------------------------|
-----------------------------------------|
----8-8-8-8-5-5-5---11-11-11-11-11-11-11-|
----8-8-8-8-5-5-5---11-11-11-11-11-11-11-|
----6-6-6-6-3-3-3----9--9--9--9--9--9--9-|
-----------------------------------------|


  PM PM   PM           PM PM PM PM
                       |--3--|
  S  S  S S  S S S S S T  T  E  S  S S S S
-------------------------------------------|
-------------------------------------------|
-------------------------------------------|
-------------------------------------------|
-------------6-5-3-5-----------------------|
--3--3----3------------3--3--3--3--6-5-3-5-|
-------------------------------------------|


  PM PM PM   PM           PM PM PM PM PM
  |--3--|
  T  T  E  S S  S S S S S S  S  S  S  S  S  S
----------------------------------------------|
----------------------------------------------|
--------------------------0--8--0--7--0--3h-5-|
----------------------------------------------|
----------------6-5-3-5-----------------------|
--1--1--1----1--------------------------------|
----------------------------------------------|


  PM PM   PM           PM PM PM PM
                       |--3--|
  S  S  S S  S S S S S T  T  E  S  S S S S
-------------------------------------------|
-------------------------------------------|
-------------------------------------------|
-------------------------------------------|
-------------6-5-3-5-----------------------|
--3--3----3------------3--3--3--3--6-5-3-5-|
-------------------------------------------|


  PM PM PM   PM           PM PM PM PM PM
  |--3--|
  T  T  E  S S  S S S S S S  S  S  S  S  S  S
----------------------------------------------|
----------------------------------------------|
----------------------------------------------|
----------------------------------------------|
----------------6-5-3-5------6-----5-----1h-3-|
--1--1--1----1------------3-----3-----3-------|
----------------------------------------------|


  PM PM   PM PM PM PM PM   PM PM PM PM
                           |--3--|
  S  S  S S  S  S  S  S  S T  T  E  S  S S S
---------------------------------------------|
---------------------------------------------|
---------------------------------------------|
---------------------------------------------|
---------------------------------------------|
--3--3----3--8--6--5--6----3--3--3--3--6-5-3-|
---------------------------------------------|


  PM PM PM   PM           PM PM PM PM PM
  |--3--|
  T  T  E  S S  S S S S S S  S  S  S  S  S  S
----------------------------------------------|
----------------------------------------------|
--------------------------0--8--0--7--0--3h-5-|
----------------------------------------------|
----------------6-5-3-5-----------------------|
--1--1--1----1--------------------------------|
----------------------------------------------|


  PM PM   PM         PM PM PM PM PM
                        |--3--|
  S  S  S S  S S S S S  T  T  E  S  S S S S
--------------------------------------------|
--------------------------------------------|
--------------------------------------------|
--------------------------------------------|
-------------6-5-3-5------------------------|
--3--3----3----------3--3--3--3--3--6-5-3-5-|
--------------------------------------------|


  PM PM PM   PM PM PM PM PM   PM PM PM PM PM
  |--3--|
  T  T  E  S S  S  S  S  S  S S  S  S  S  S
---------------------------------------------|
---------------------------------------------|
---------------------------------------------|
---------------------------------------------|
----------------6--5--3--5-------6-----5-----|
--1--1--1----1----------------3-----3-----3--|
---------------------------------------------|


  S S S S S S S S S S S S S S S S
----------------------------------|
----------------------------------|
----------------------------------|
--6-6-6-6-6-6-6-6-6-6-6-6-6-6-6-6-|
--6-6-6-6-6-6-6-6-6-6-6-6-6-6-6-6-|
--4-4-4-4-4-4-4-4-4-4-4-4-4-4-4-4-|
----------------------------------|


  S S S S S S S S S S S S S S E
---------------------------------|
---------------------------------|
---------------------------------|
--6-6-6-6-6-6-6-6----------------|
--6-6-6-6-6-6-6-6-6-6-6-6-6-6-6--|
--4-4-4-4-4-4-4-4-6-6-6-6-6-6-6--|
------------------4-4-4-4-4-4-4--|


  T T T T T T T T T T T T T T T T T T T T T T
----------------------------------------------|
----------------------------------------------|
----------------------------------------------|
----------------------------------------------|
----------------------------------------------|
--7-7-7-7-7-7-7-7-6-6-6-6-6-6-6-6-3-3-3-3-6-6-|
----------------------------------------------|


  T T T T T T T T T T T T T T T T E  E  S S E
----------------------------------------------|
----------------------------------------------|
----------------------------------------------|
----------------------------------------------|
----------------------------------------------|
--7-7-7-7-7-7-7-7-6-6-6-6-6-6-6-6----6--------|
----------------------------------5-----5-4-3-|


  E   S  S  S  S E   S  S  S  S E   S  S  S
----------------------------------------------|
----------------------------------------------|
-----10-10-10-10-L--10-10-10-10-L--10-10-10-1-|
------9--9--9--9-L---9--9--9--9-L---9--9--9---|
------8--8--8--8-L---8--8--8--8-L---8--8--8---|
--7---7--7--7--7-7---7--7--7--7-7---7--7--7---|
--0------------L-0------------L-0-------------|


    PM PM PM PM PM PM           PM   PM   PM
  S S  S  S  S  S  S  S S S S S S  S S  S S
---------------------------------------------|
---------------------------------------------|
---------------------------------------------|
---------------------------------------------|
---------------------------------------------|
----5--5--5--5--5--5------------5----5----5--|
--x-3--3--3--3--3--3------------3----3----3--|


    PM PM PM PM PM PM           PM
  S S  S  S  S  S  S  S S S S S S  E  Q    S
---------------------------------------------|
---------------------------------------------|
---------------------------------------------|
--------------------------------------7----L-|
--------------------------------------5----L-|
----5--5--5--5--5--5------------5-----5----L-|
--x-3--3--3--3--3--3------------3-----3----L-|


  E   S  S  S  S E   S  S  S  S E   S  S  S
----------------------------------------------|
----------------------------------------------|
-----10-10-10-10-L--10-10-10-10-L--10-10-10-1-|
------9--9--9--9-L---9--9--9--9-L---9--9--9---|
------8--8--8--8-L---8--8--8--8-L---8--8--8---|
--7---7--7--7--7-7---7--7--7--7-7---7--7--7---|
--0------------L-0------------L-0-------------|


    PM PM PM PM PM PM           PM   PM   PM
  S S  S  S  S  S  S  S S S S S S  S S  S S
---------------------------------------------|
---------------------------------------------|
---------------------------------------------|
---------------------------------------------|
---------------------------------------------|
----5--5--5--5--5--5------------5----5----5--|
--x-3--3--3--3--3--3------------3----3----3--|


    PM PM PM PM PM PM           PM
  S S  S  S  S  S  S  S S S S S S  E  E.  S S
---------------------------------------------|
---------------------------------------------|
---------------------------------------------|
--------------------------------------7---7--|
--------------------------------------5---5--|
----5--5--5--5--5--5------------5-----5---5--|
--x-3--3--3--3--3--3------------3-----3---3--|


  E   S  S  S  S E   S  S  S  S E   S  S  S
----------------------------------------------|
----------------------------------------------|
-----10-10-10-10-L--10-10-10-10-L--10-10-10-1-|
------9--9--9--9-L---9--9--9--9-L---9--9--9---|
------8--8--8--8-L---8--8--8--8-L---8--8--8---|
--7---7--7--7--7-7---7--7--7--7-7---7--7--7---|
--0------------L-0------------L-0-------------|


    PM PM PM PM PM PM           PM   PM   PM
  S S  S  S  S  S  S  S S S S S S  S S  S S
---------------------------------------------|
---------------------------------------------|
---------------------------------------------|
---------------------------------------------|
---------------------------------------------|
----5--5--5--5--5--5------------5----5----5--|
--x-3--3--3--3--3--3------------3----3----3--|


    PM PM PM PM PM PM           PM
  S S  S  S  S  S  S  S S S S S S  E  Q    S
---------------------------------------------|
---------------------------------------------|
--------------------------------------7----L-|
--------------------------------------7----L-|
--------------------------------------5----L-|
----5--5--5--5--5--5------------5-----5----L-|
--x-3--3--3--3--3--3------------3------------|


  E   S  S  S  S E   S  S  S  S E   S  S  S
----------------------------------------------|
----------------------------------------------|
-----10-10-10-10-L--10-10-10-10-L--10-10-10-1-|
------9--9--9--9-L---9--9--9--9-L---9--9--9---|
------8--8--8--8-L---8--8--8--8-L---8--8--8---|
--7---7--7--7--7-7---7--7--7--7-7---7--7--7---|
--0------------L-0------------L-0-------------|


    PM PM PM PM PM PM           PM   PM   PM
  S S  S  S  S  S  S  S S S S S S  S S  S S
---------------------------------------------|
---------------------------------------------|
---------------------------------------------|
---------------------------------------------|
---------------------------------------------|
----5--5--5--5--5--5------------5----5----5--|
--x-3--3--3--3--3--3------------3----3----3--|


    PM PM PM PM PM PM           PM
  S S  S  S  S  S  S  S S S S S S  E  Q    S
---------------------------------------------|
---------------------------------------------|
--------------------------------------7----L-|
--------------------------------------7----L-|
--------------------------------------5----L-|
----5--5--5--5--5--5------------5-----5----L-|
--x-3--3--3--3--3--3------------3------------|


                        W
  S S S S S S Q.        Q
-----------------------------|------|
-----------------------------|------|
-----------------------------|------|
-----------------------------|------|
----------7-6-5--------------|------|
--2-2-2-2-7-6-5------2g10----|------|
--0-0-0-0-5-4-3--------------|------|


  E.  S S S H        E
------------------------|
------------------------|
------------------------|
------------------------|
--2---2-7-6-5--------L--|
--2---2-7-6-5--------L--|
--0---0-5-4-3--------L--|


  E  E  H.
---------------------|
---------------------|
---------------------|
---------------------|
--2------------------|
--2------------------|
--0------------------|


  E.  S S S H        E
------------------------|
------------------------|
------------------------|
------------------------|
--2---2-7-6-5--------L--|
--2---2-7-6-5--------L--|
--0---0-5-4-3--------L--|


  PM PM
  S  S  E  H.
------------------------|
------------------------|
------------------------|
------------------------|
------------------------|
------------------------|
--0--0------------------|


  E.  S S S H        E
------------------------|
------------------------|
------------------------|
------------------------|
--2---2-7-6-5--------L--|
--2---2-7-6-5--------L--|
--0---0-5-4-3--------L--|


  PM PM   PM   PM   PM   PM   PM PM PM PM
  S  S  S S  S S  S S  S S  S S  S  S  S  S
--------------------------------------------|
--------------------------------------------|
--------------------------------------------|
--------------------------------------------|
--------------------------------------------|
--2--2----2----2----2----2----2--2--2--2----|
--0--0----0----0----0----0----0--0--0--0----|


     G Harmonic minor
     SH                        SH
     T              T  T  T    Q     Q.
----------------------------------------------|
----------------------------------------------|
--<>14-------------15-14-12-<>14~----L--------|
----------------------------------------------|
----------------------------------------------|
----------------------------------------------|
----------------------------------------------|


                 |---3---|   |---3---|
  E   Q.         E   E   E   E   E   E
----------------------------------------|
-------------12g16--15------15----------|
--L---L-----------------17------17--15--|
----------------------------------------|
----------------------------------------|
----------------------------------------|
----------------------------------------|


              SH
   Q.         H         E
---------------------------|
---------------------------|
---------------------------|
--18b----------------------|
-----------<>17~--------L--|
---------------------------|
---------------------------|


   |--3--|  |--3--|  |--3--|  |--3--|  |--3--
   S  S  S  S  S  S  S  S  S  S  S  S  S  S
----------------------------------------------|
----------------------------------------------|
--------12-14-15-14-12----12------------------|
--12-15----------------15----15-13-12-13-12---|
--------------------------------------------1-|
----------------------------------------------|
----------------------------------------------|


               PM
   S S  S S  S S  S S S  S S  S  Q
------------------------11------------|
--------------------------------------|
--------------------8-----------------|
--13-7-12-7-10-6--7---7----7-10~-L----|
--------------------------------------|
--------------------------------------|
--------------------------------------|


   |--3-|              |--3--|  |--3--|
   S S  S  T  T  T  T  S  S  S  S  S  S    E.
-------------13-14-13----13-------------------|
-----9-12-15----------15----15-12-15-12-------|
--10------------------------------------<>17--|b
----------------------------------------------|
----------------------------------------------|
----------------------------------------------|
----------------------------------------------|


  S  E.   E.     E.   E.    E   S
---------18br--------19b---19--18-|
--L-------------17----------------|
----14----------------------------|
----------------------------------|
----------------------------------|
----------------------------------|
----------------------------------|


                    |---3---|
  S  S  S  T  T  S  E   E   E   S. S. Q
----17-18-17-18-17-------------17-17~-L----|
-------------------19--18--19--------------|
-------------------------------------------|
-------------------------------------------|
-------------------------------------------|
-------------------------------------------|
-------------------------------------------|


  S S S S S S S S S S S S S S S S
----------------------------------|
----------------------------------|
----------------------------------|
----8-8-8-8-5-5-5-----------------|
----8-8-8-8-5-5-5---7-7-7-7-7-7-7-|
----6-6-6-6-3-3-3---7-7-7-7-7-7-7-|
--------------------5-5-5-5-5-5-5-|


  S S S S S S S S S S S S S S S S
----------------------------------|
----------------------------------|
----------------------------------|
----8-8-8-8-5-5-5-----------------|
----8-8-8-8-5-5-5---7-7-7-7-8-8-7-|
----6-6-6-6-3-3-3---7-7-7-7-8-8-7-|
--------------------5-5-5-5-6-6-5-|


  S S S S S S S S S S S S S S S S
----------------------------------|
----------------------------------|
----------------------------------|
----8-8-8-8-5-5-5-----------------|
----8-8-8-8-5-5-5---7-7-7-7-7-7-7-|
----6-6-6-6-3-3-3---7-7-7-7-7-7-7-|
--------------------5-5-5-5-5-5-5-|


  S S S S S S S S S  S  S  S  S  S  S  S
-----------------------------------------|
-----------------------------------------|
-----------------------------------------|
----8-8-8-8-5-5-5---11-11-11-11-11-11-11-|
----8-8-8-8-5-5-5---11-11-11-11-11-11-11-|
----6-6-6-6-3-3-3----9--9--9--9--9--9--9-|
-----------------------------------------|


  S S S S S S S S S S S S S S S S
----------------------------------|
----------------------------------|
----------------------------------|
----8-8-8-8-5-5-5-----------------|
----8-8-8-8-5-5-5---7-7-7-7-7-7-7-|
----6-6-6-6-3-3-3---7-7-7-7-7-7-7-|
--------------------5-5-5-5-5-5-5-|


  S S S S S S S S S S S S S S S S
----------------------------------|
----------------------------------|
----------------------------------|
----8-8-8-8-5-5-5-----------------|
----8-8-8-8-5-5-5---7-7-7-7-8-8-7-|
----6-6-6-6-3-3-3---7-7-7-7-8-8-7-|
--------------------5-5-5-5-6-6-5-|


  S S S S S S S S S S S S S S S S
----------------------------------|
----------------------------------|
----------------------------------|
----8-8-8-8-5-5-5-----------------|
----8-8-8-8-5-5-5---7-7-7-7-7-7-7-|
----6-6-6-6-3-3-3---7-7-7-7-7-7-7-|
--------------------5-5-5-5-5-5-5-|


  S S S S S S S S S  S  S  S  S  S  S  S
-----------------------------------------|
-----------------------------------------|
-----------------------------------------|
----8-8-8-8-5-5-5---11-11-11-11-11-11-11-|
----8-8-8-8-5-5-5---11-11-11-11-11-11-11-|
----6-6-6-6-3-3-3----9--9--9--9--9--9--9-|
-----------------------------------------|


  T T T T T T T T T T T T T T T T T T T T T T
----------------------------------------------|
----------------------------------------------|
----------------------------------------------|
----------------------------------------------|
----------------------------------------------|
--7-7-7-7-7-7-7-7-6-6-6-6-6-6-6-6-3-3-3-3-6-6-|
----------------------------------------------|


  T T T T T T T T T T T T T T T T E  E  S S E
----------------------------------------------|
----------------------------------------------|
----------------------------------------------|
----------------------------------------------|
----------------------------------------------|
--7-7-7-7-7-7-7-7-6-6-6-6-6-6-6-6----6--------|
----------------------------------5-----5-4-3-|


  T T T T T T T T T T T T T T T T T T T T T T
----------------------------------------------|
----------------------------------------------|
----------------------------------------------|
----------------------------------------------|
----------------------------------------------|
--7-7-7-7-7-7-7-7-6-6-6-6-6-6-6-6-3-3-3-3-6-6-|
----------------------------------------------|


  T T T T T T T T T T T T T T T T E  E  S S E
----------------------------------------------|
----------------------------------------------|
----------------------------------------------|
----------------------------------------------|
----------------------------------------------|
--7-7-7-7-7-7-7-7-6-6-6-6-6-6-6-6----6--------|
----------------------------------5-----5-4-3-|


  PM
  E  E  H.
---------------------||
---------------------||
---------------------||
---------------------||
---------------------||
---------------------||
--0------------------||


                Denial 101


                                       Amoral
Guitar (6-string)

     H        S S S S   S  S  S S
E||-------------------------------|
B||-------------------------------|
G||-------------9------12----11-9-|
D||-------------------------------|
A||-------------7-----(10)----9-7-|
E||---------------0-0------0------|


  H        S S S S   S  S  S S
-------------------------------|
-------------------------------|
--L--------L-9------12----11-9-|
-------------------------------|
--L--------L-7-----(10)----9-7-|
---------------0-0------0------|


  H          S  S S S   S  S  S S
----------------------------------|
----------------------------------|
--L--------7g9-14------12----11-9-|
----------------------------------|
--L--------5g7-12-----(10)----9-7-|
------------------0-0------0------|


  H          S  S S S  E.   S
------------------------------|
------------------------------|
--L--------7g9-12-----11S---x-|
------------------------------|
--L--------5g7-10------9S---x-|
------------------0-0---------|


  S S S S S S S S S S S S S S S S
----------------------------------|
----------------------------------|
----------------------------------|
----2-----0-2-3-2---2-----5---3-2-|
----2-----0-2-3-2---2-----5---3-2-|
--0---0-0---------0---0-0---0-----|


  S S S S S S S S S S S S S S S S
----------------------------------|
----------------------------------|
----------------------------------|
----2-----0-2-3-2---2-----6---3-2-|
----2-----0-2-3-2---2-----6---3-2-|
--0---0-0---------0---0-0---0-----|


  S S S S S S S S S S S S S S S S
----------------------------------|
----------------------------------|
----------------------------------|
----2-----0-2-3-2---2-----5---3-2-|
----2-----0-2-3-2---2-----5---3-2-|
--0---0-0---------0---0-0---0-----|


  S S S S S S S S S S S S S S S S
----------------------------------|
----------------------------------|
----------------------------------|
----2-----0-2-3-2---2-----6---3-2-|
----2-----0-2-3-2---2-----6---3-2-|
--0---0-0---------0---0-0---0-----|


  S S S S S S S S S S S S S S S S
----------------------------------|
----------------------------------|
----------------------------------|
----2-----0-2-3-2---2-----5---3-2-|
----2-----0-2-3-2---2-----5---3-2-|
--0---0-0---------0---0-0---0-----|


  S S S S S S S S S S S S S S S S
----------------------------------|
----------------------------------|
----------------------------------|
----2-----0-2-3-2---2-----6---3-2-|
----2-----0-2-3-2---2-----6---3-2-|
--0---0-0---------0---0-0---0-----|


  S S S S S S S S S S S S S S S S
----------------------------------|
----------------------------------|
----------------------------------|
----2-----0-2-3-2---2-----5---3-2-|
----2-----0-2-3-2---2-----5---3-2-|
--0---0-0---------0---0-0---0-----|


  S S S S S S S S S S S S S S S S
----------------------------------|
----------------------------------|
----------------------------------|
----2-----0-2-3-2---2-----6---3-2-|
----2-----0-2-3-2---2-----6---3-2-|
--0---0-0---------0---0-0---0-----|


  E.  S S S H        E
------------------------|
------------------------|
------------------------|
------------------------|
--2---2-7-6-5--------L--|
--2---2-7-6-5--------L--|


  E  E  H.
---------------------|
---------------------|
---------------------|
---------------------|
--2------------------|
--2------------------|


  E.  S S S H        E
------------------------|
------------------------|
------------------------|
------------------------|
--2---2-7-6-5--------L--|
--2---2-7-6-5--------L--|


  PM PM
  S  S  E  H        E.   S
---------------------------|
---------------------------|
---------------------------|
--------------------5S---x-|
--------------------5S---x-|
--2--2---------------------|


  E.  S S S H        E
------------------------|
------------------------|
------------------------|
------------------------|
--2---2-7-6-5--------L--|
--2---2-7-6-5--------L--|


  E  E  H.
---------------------|
---------------------|
---------------------|
---------------------|
--2------------------|
--2------------------|


  E.  S S S H        E
------------------------|
------------------------|
------------------------|
------------------------|
--2---2-7-6-5--------L--|
--2---2-7-6-5--------L--|


  PM PM PM     PM   PM   PM   PM   PM PM PM P
  T  T  T  T S S  S S  S S  S S  S S  S  S  S
----------------------------------------------|
----------------------------------------------|
----------------------------------------------|
----------------------------------------------|
--2--2--2------2----2----2----2----2--2--2--2-|
--2--2--2------2----2----2----2----2--2--2--2-|


  E.  S S S S S H
-------------------------|
-------------------------|
-------------------------|
--7---L-5-6-5-L-L--------|
--7---L-3-4-3-L-L--------|
--5---L-3-4-3-L-L--------|


      PM PM     PM PM PM    PM PM       PM PM
  S S S  S  S S S  S  S   S S  S   S  S S  S
---------------------------------------------|
---------------------------------------------|
---------------------------------------------|
--L-8-------8-7----------11-------11-10------|
--L-6-6--6--6-5-5---------9----9---9--8------|
--L----------------0--0-----0-----------0--0-|


  E.  S S S S S H
-------------------------|
-------------------------|
-------------------------|
--7---L-5-6-5-L-L--------|
--7---L-3-4-3-L-L--------|
--5---L-3-4-3-L-L--------|


      PM PM     PM PM PM    PM PM       PM PM
  S S S  S  S S S  S  S   S S  S   S  S S  S
---------------------------------------------|
---------------------------------------------|
---------------------------------------------|
--L-8-------8-7----------11-------11-10------|
--L-6-6--6--6-5-5---------9----9---9--8-8--8-|
--L----------------0--0-----0----------------|


  E.  S S S S S H
-------------------------|
-------------------------|
-------------------------|
--7---L-5-6-5-L-L--------|
--7---L-3-4-3-L-L--------|
--5---L-3-4-3-L-L--------|


      PM PM     PM PM PM    PM PM       PM PM
  S S S  S  S S S  S  S   S S  S   S  S S  S
---------------------------------------------|
---------------------------------------------|
---------------------------------------------|
--L-8-------8-7----------11-------11-10------|
--L-6-6--6--6-5-5---------9----9---9--8------|
--L----------------0--0-----0-----------0--0-|


  E.  S S S S S H
-------------------------|
-------------------------|
-------------------------|
--7---L-5-6-5-L-L--------|
--7---L-3-4-3-L-L--------|
--5---L-3-4-3-L-L--------|


      PM PM     PM PM PM    PM PM       PM PM
  S S S  S  S S S  S  S   S S  S   S  S S  S
---------------------------------------------|
---------------------------------------------|
---------------------------------------------|
--L-8-------8-7----------11-------11-10------|
--L-6-6--6--6-5-5---------9----9---9--8-8--8-|
--L----------------0--0-----0----------------|


  S S S S S S S S S S S S S S S S
----------------------------------|
----------------------------------|
--------------------9-9-9-9-9-9-9-|
----8-8-8-8-5-5-5---9-9-9-9-9-9-9-|
----8-8-8-8-5-5-5---7-7-7-7-7-7-7-|
----6-6-6-6-3-3-3---7-7-7-7-7-7-7-|


  S S S S S S S S S S S S S  S  S S
------------------------------------|
------------------------------------|
--------------------9-9-9-9-10-10-9-|
----8-8-8-8-5-5-5---9-9-9-9-10-10-9-|
----8-8-8-8-5-5-5---7-7-7-7--8--8-7-|
----6-6-6-6-3-3-3---7-7-7-7--8--8-7-|


  S S S S S S S S S S S S S S S S
----------------------------------|
----------------------------------|
--------------------9-9-9-9-9-9-9-|
----8-8-8-8-5-5-5---9-9-9-9-9-9-9-|
----8-8-8-8-5-5-5---7-7-7-7-7-7-7-|
----6-6-6-6-3-3-3---7-7-7-7-7-7-7-|


  S S S S S S S S S  S  S  S  S  S  S  S
-----------------------------------------|
-----------------------------------------|
-----------------------------------------|
----8-8-8-8-5-5-5---11-11-11-11-11-11-11-|
----8-8-8-8-5-5-5---11-11-11-11-11-11-11-|
----6-6-6-6-3-3-3----9--9--9--9--9--9--9-|


  S S S S S S S S S S S S S S S S
----------------------------------|
----------------------------------|
--------------------9-9-9-9-9-9-9-|
----8-8-8-8-5-5-5---9-9-9-9-9-9-9-|
----8-8-8-8-5-5-5---7-7-7-7-7-7-7-|
----6-6-6-6-3-3-3---7-7-7-7-7-7-7-|


  S S S S S S S S S S S S S  S  S S
------------------------------------|
------------------------------------|
--------------------9-9-9-9-10-10-9-|
----8-8-8-8-5-5-5---9-9-9-9-10-10-9-|
----8-8-8-8-5-5-5---7-7-7-7--8--8-7-|
----6-6-6-6-3-3-3---7-7-7-7--8--8-7-|


  S S S S S S S S S S S S S S S S
----------------------------------|
----------------------------------|
--------------------9-9-9-9-9-9-9-|
----8-8-8-8-5-5-5---9-9-9-9-9-9-9-|
----8-8-8-8-5-5-5---7-7-7-7-7-7-7-|
----6-6-6-6-3-3-3---7-7-7-7-7-7-7-|


  S S S S S S S S S  S  S  S  S  S  S  S
-----------------------------------------|
-----------------------------------------|
-----------------------------------------|
----8-8-8-8-5-5-5---11-11-11-11-11-11-11-|
----8-8-8-8-5-5-5---11-11-11-11-11-11-11-|
----6-6-6-6-3-3-3----9--9--9--9--9--9--9-|


                                SH
  S S S S S S S  S S  S S S S   E.
--------------4p-0-------------------|
----------3--------3p-0-6-5-3-<>5~---|
------4------------------------------|
--2-2---2---2------------------------|
-------------------------------------|
-------------------------------------|


  S S S   E.   S S S   E.   S E.
----------------------------------|
--6-5-3-<>5~---6-5-3-<>5~---3-0---|
----------------------------------|
----------------------------------|
----------------------------------|
----------------------------------|


    \1/
    W
---------------------|
---------------------|
--<>9----------------|
--<>9----------------|
---------------------|
---------------------|


  H         Q     Q
--2~-------------------|
--0--------------------|
-----------------------|
-----------------------|
------------9S----x----|
------------7S----x----|


  E.  S S S H        E
------------------------|
------------------------|
------------------------|
------------------------|
--2---2-7-6-5--------L--|
--2---2-7-6-5--------L--|


  E  E  H.
---------------------|
---------------------|
---------------------|
---------------------|
--2------------------|
--2------------------|


  E.  S S S H        E
------------------------|
------------------------|
------------------------|
------------------------|
--2---2-7-6-5--------L--|
--2---2-7-6-5--------L--|


  PM PM
  S  S  E  H.
------------------------|
------------------------|
------------------------|
------------------------|
------------------------|
--2--2------------------|


  E.  S S S H        E
------------------------|
------------------------|
------------------------|
------------------------|
--2---2-7-6-5--------L--|
--2---2-7-6-5--------L--|


  E  E  H.
---------------------|
---------------------|
---------------------|
---------------------|
--2------------------|
--2------------------|


  E.  S S S H        E
------------------------|
------------------------|
------------------------|
------------------------|
--2---2-7-6-5--------L--|
--2---2-7-6-5--------L--|


  PM PM PM     PM   PM   PM   PM   PM PM PM P
  T  T  T  T S S  S S  S S  S S  S S  S  S  S
----------------------------------------------|
----------------------------------------------|
----------------------------------------------|
----------------------------------------------|
--2--2--2------2----2----2----2----2--2--2--2-|
--2--2--2------2----2----2----2----2--2--2--2-|


  E.  S S S S S H
-------------------------|
-------------------------|
-------------------------|
--7---L-5-6-5-L-L--------|
--7---L-3-4-3-L-L--------|
--5---L-3-4-3-L-L--------|


      PM PM     PM PM PM    PM PM       PM PM
  S S S  S  S S S  S  S   S S  S   S  S S  S
---------------------------------------------|
---------------------------------------------|
---------------------------------------------|
--L-8-------8-7----------11-------11-10------|
--L-6-6--6--6-5-5---------9----9---9--8------|
--L----------------0--0-----0-----------0--0-|


  E.  S S S S S H
-------------------------|
-------------------------|
-------------------------|
--7---L-5-6-5-L-L--------|
--7---L-3-4-3-L-L--------|
--5---L-3-4-3-L-L--------|


      PM PM     PM PM PM    PM PM       PM PM
  S S S  S  S S S  S  S   S S  S   S  S S  S
---------------------------------------------|
---------------------------------------------|
---------------------------------------------|
--L-8-------8-7----------11-------11-10------|
--L-6-6--6--6-5-5---------9----9---9--8-8--8-|
--L----------------0--0-----0----------------|


  E.  S S S S S H
-------------------------|
-------------------------|
-------------------------|
--7---L-5-6-5-L-L--------|
--7---L-3-4-3-L-L--------|
--5---L-3-4-3-L-L--------|


      PM PM     PM PM PM    PM PM       PM PM
  S S S  S  S S S  S  S   S S  S   S  S S  S
---------------------------------------------|
---------------------------------------------|
---------------------------------------------|
--L-8-------8-7----------11-------11-10------|
--L-6-6--6--6-5-5---------9----9---9--8------|
--L----------------0--0-----0-----------0--0-|


  E.  S S S S S H
-------------------------|
-------------------------|
-------------------------|
--7---L-5-6-5-L-L--------|
--7---L-3-4-3-L-L--------|
--5---L-3-4-3-L-L--------|


      PM PM     PM PM PM    PM PM       PM PM
  S S S  S  S S S  S  S   S S  S   S  S S  S
---------------------------------------------|
---------------------------------------------|
---------------------------------------------|
--L-8-------8-7----------11-------11-10------|
--L-6-6--6--6-5-5---------9----9---9--8-8--8-|
--L----------------0--0-----0----------------|


  S S S S S S S S S S S S S S S S
----------------------------------|
----------------------------------|
--------------------9-9-9-9-9-9-9-|
----8-8-8-8-5-5-5---9-9-9-9-9-9-9-|
----8-8-8-8-5-5-5---7-7-7-7-7-7-7-|
----6-6-6-6-3-3-3---7-7-7-7-7-7-7-|


  S S S S S S S S S S S S S  S  S S
------------------------------------|
------------------------------------|
--------------------9-9-9-9-10-10-9-|
----8-8-8-8-5-5-5---9-9-9-9-10-10-9-|
----8-8-8-8-5-5-5---7-7-7-7--8--8-7-|
----6-6-6-6-3-3-3---7-7-7-7--8--8-7-|


  S S S S S S S S S S S S S S S S
----------------------------------|
----------------------------------|
--------------------9-9-9-9-9-9-9-|
----8-8-8-8-5-5-5---9-9-9-9-9-9-9-|
----8-8-8-8-5-5-5---7-7-7-7-7-7-7-|
----6-6-6-6-3-3-3---7-7-7-7-7-7-7-|


  S S S S S S S S S  S  S  S  S  S  S  S
-----------------------------------------|
-----------------------------------------|
-----------------------------------------|
----8-8-8-8-5-5-5---11-11-11-11-11-11-11-|
----8-8-8-8-5-5-5---11-11-11-11-11-11-11-|
----6-6-6-6-3-3-3----9--9--9--9--9--9--9-|


  S S S S S S S S S S S S S S S S
----------------------------------|
----------------------------------|
--------------------9-9-9-9-9-9-9-|
----8-8-8-8-5-5-5---9-9-9-9-9-9-9-|
----8-8-8-8-5-5-5---7-7-7-7-7-7-7-|
----6-6-6-6-3-3-3---7-7-7-7-7-7-7-|


  S S S S S S S S S S S S S  S  S S
------------------------------------|
------------------------------------|
--------------------9-9-9-9-10-10-9-|
----8-8-8-8-5-5-5---9-9-9-9-10-10-9-|
----8-8-8-8-5-5-5---7-7-7-7--8--8-7-|
----6-6-6-6-3-3-3---7-7-7-7--8--8-7-|


  S S S S S S S S S S S S S S S S
----------------------------------|
----------------------------------|
--------------------9-9-9-9-9-9-9-|
----8-8-8-8-5-5-5---9-9-9-9-9-9-9-|
----8-8-8-8-5-5-5---7-7-7-7-7-7-7-|
----6-6-6-6-3-3-3---7-7-7-7-7-7-7-|


  S S S S S S S S S  S  S  S  S  S  S  S
-----------------------------------------|
-----------------------------------------|
-----------------------------------------|
----8-8-8-8-5-5-5---11-11-11-11-11-11-11-|
----8-8-8-8-5-5-5---11-11-11-11-11-11-11-|
----6-6-6-6-3-3-3----9--9--9--9--9--9--9-|


  PM PM   PM           PM PM PM PM
                       |--3--|
  S  S  S S  S S S S S T  T  E  S  S S S S
-------------------------------------------|
-------------------------------------------|
-------------------------------------------|
-------------------------------------------|
-------------6-5-3-5-----------------------|
--3--3----3------------3--3--3--3--6-5-3-5-|


  PM PM PM   PM           PM PM PM PM PM
  |--3--|
  T  T  E  S S  S S S S S S  S  S  S  S  S  S
----------------------------------------------|
----------------------------------------------|
--------------------------0--8--0--7--0--3h-5-|
----------------------------------------------|
----------------6-5-3-5-----------------------|
--1--1--1----1--------------------------------|


  PM PM   PM           PM PM PM PM
                       |--3--|
  S  S  S S  S S S S S T  T  E  S  S S S S
-------------------------------------------|
-------------------------------------------|
-------------------------------------------|
-------------------------------------------|
-------------6-5-3-5-----------------------|
--3--3----3------------3--3--3--3--6-5-3-5-|


  PM PM PM   PM           PM PM PM PM PM
  |--3--|
  T  T  E  S S  S S S S S S  S  S  S  S  S  S
----------------------------------------------|
----------------------------------------------|
--------------------------0--8--0--7--0--3h-5-|
----------------------------------------------|
----------------6-5-3-5-----------------------|
--1--1--1----1--------------------------------|


  PM PM   PM           PM PM PM PM
                       |--3--|
  S  S  S S  S S S S S T  T  E  S  S S S S
-------------------------------------------|
-------------------------------------------|
-------------------------------------------|
-------------------------------------------|
-------------6-5-3-5-----------------------|
--3--3----3------------3--3--3--3--6-5-3-5-|


  PM PM PM   PM           PM PM PM PM PM
  |--3--|
  T  T  E  S S  S S S S S S  S  S  S  S  S  S
----------------------------------------------|
----------------------------------------------|
--------------------------0--8--0--7--0--3h-5-|
----------------------------------------------|
----------------6-5-3-5-----------------------|
--1--1--1----1--------------------------------|


  PM PM   PM         PM PM PM PM PM
                        |--3--|
  S  S  S S  S S S S S  T  T  E  S  S S S S
--------------------------------------------|
--------------------------------------------|
--------------------------------------------|
--------------------------------------------|
-------------6-5-3-5------------------------|
--3--3----3----------3--3--3--3--3--6-5-3-5-|


  PM PM PM   PM           PM PM PM PM PM
  |--3--|
  T  T  E  S S  S S S S S S  S  S  S  S  S  S
----------------------------------------------|
----------------------------------------------|
--------------------------0--8--0--7--0--3h-5-|
----------------------------------------------|
----------------6-5-3-5-----------------------|
--1--1--1----1--------------------------------|


  S S S S S S S S S S S S S S S S
----------------------------------|
----------------------------------|
--8-8-8-8-8-8-8-8-8-8-8-8-8-8-8-8-|
--6-6-6-6-6-6-6-6-6-6-6-6-6-6-6-6-|
--6-6-6-6-6-6-6-6-6-6-6-6-6-6-6-6-|
----------------------------------|


  S S S S S S S S S S S S S S E
---------------------------------|
---------------------------------|
--8-8-8-8-8-8-8-8-3-3-3-3-3-3-3--|
--6-6-6-6-6-6-6-6-1-1-1-1-1-1-1--|
--6-6-6-6-6-6-6-6-1-1-1-1-1-1-1--|
---------------------------------|


  T T T T T T T T T T T T T T T T T T T T T T
----------------------------------------------|
----------------------------------------------|
----------------------------------------------|
----------------------------------------------|
--5-5-5-5-5-5-5-5-4-4-4-4-4-4-4-4-------------|
----------------------------------3-3-3-3-6-6-|


  T T T T T T T T T T T T T T T T E  E  S S E
----------------------------------------------|
----------------------------------------------|
----------------------------------------------|
----------------------------------------------|
--5-5-5-5-5-5-5-5-4-4-4-4-4-4-4-4-------------|
----------------------------------0--6--3-2-1-|


  E  E  Q    W
------------------------------|
------------------------------|
------------------------------|
------------------------------|
--2---------------------------|
--2---------------------------|


    PM PM PM PM PM PM           PM   PM   PM
  S S  S  S  S  S  S  S S S S S S  S S  S S
---------------------------------------------|
---------------------------------------------|
---------------------------------------------|
---------------------------------------------|
----5--5--5--5--5--5------------5----5----5--|
----5--5--5--5--5--5------------5----5----5--|


    PM PM PM PM PM PM           PM
  S S  S  S  S  S  S  S S S S S S  E  Q    S
---------------------------------------------|
---------------------------------------------|
--------------------------------------7----L-|
--------------------------------------7----L-|
----5--5--5--5--5--5------------5-----5----L-|
----5--5--5--5--5--5------------5-----5----L-|


----|
----|
----|
----|
----|
----|


    PM PM PM PM PM PM           PM   PM   PM
  S S  S  S  S  S  S  S S S S S S  S S  S S
---------------------------------------------|
---------------------------------------------|
---------------------------------------------|
---------------------------------------------|
----5--5--5--5--5--5------------5----5----5--|
----5--5--5--5--5--5------------5----5----5--|


    PM PM PM PM PM PM           PM
  S S  S  S  S  S  S  S S S S S S  E  E.  S S
---------------------------------------------|
---------------------------------------------|
--------------------------------------7---7--|
--------------------------------------7---7--|
----5--5--5--5--5--5------------5-----5---5--|
----5--5--5--5--5--5------------5-----5---5--|


----|
----|
----|
----|
----|
----|


    PM PM PM PM PM PM           PM   PM   PM
  S S  S  S  S  S  S  S S S S S S  S S  S S
---------------------------------------------|
---------------------------------------------|
---------------------------------------------|
---------------------------------------------|
----5--5--5--5--5--5------------5----5----5--|
----5--5--5--5--5--5------------5----5----5--|


    PM PM PM PM PM PM           PM
  S S  S  S  S  S  S  S S S S S S  E  Q    S
---------------------------------------------|
---------------------------------------------|
--------------------------------------7----L-|
--------------------------------------7----L-|
----5--5--5--5--5--5------------5-----5----L-|
----5--5--5--5--5--5------------5-----5----L-|


----|
----|
----|
----|
----|
----|


    PM PM PM PM PM PM           PM   PM   PM
  S S  S  S  S  S  S  S S S S S S  S S  S S
---------------------------------------------|
---------------------------------------------|
---------------------------------------------|
---------------------------------------------|
----5--5--5--5--5--5------------5----5----5--|
----5--5--5--5--5--5------------5----5----5--|


    PM PM PM PM PM PM           PM
  S S  S  S  S  S  S  S S S S S S  E  Q    S
---------------------------------------------|
---------------------------------------------|
--------------------------------------7----L-|
--------------------------------------7----L-|
----5--5--5--5--5--5------------5-----5----L-|
----5--5--5--5--5--5------------5-----5----L-|


  E minor
  S       S  T   T S S  S S S  S S S  S S S
----------------------------------------------|
----------------------------------------------|
-------------------------------------12-----1-|
-----------------------14-----16--------------|
------------15s-14----------------------------|
---------------------0----0-0----0-0----0-0---|


              |----3----|
   H          E    E    E    Q
-----------------------------------|
-------------15s--13s--12s--13~----|
--14b------------------------------|
-----------------------------------|
-----------------------------------|
-----------------------------------|


       PM       PM       PM
  S  S S   S  S S   S  S S   S  S  S  S  S
----------------------------------------------|
----------------------------------------------|>
--9p-7----11p-7----12p-7----11p-7-----7s-9----|
-------9--------9--------9--------(9)---------|
----------------------------------------------|
----------------------------------------------|


               >                       >
   |---3---|   |---3---|   |---3---|
   E   E   E   E   E   E   E   E   E   Q
---------------------------------------------|
---------------------------------------------|
--11S--9S--7S--9S--7S--6S--7S--6S--2S--4~----|
---------------------------------------------|
---------------------------------------------|
---------------------------------------------|


                 SH            PM PM
   Q.       S    Q     S  S  S S  S
----------------------------10-------|
-----------------------9-12----9--9--|
--14b------12-<>11~------------------|
-------------------------------------|
-------------------------------------|
-------------------------------------|


        PM PM           PM
   E    S  S    S    S  S   Q.      E.
----------------------------------------|
----------------------------------------|
----------------------------------------|
--12~--12-12-<>12p-<>9------------------|
-----------------------12-<>9~----------|
----------------------------------------|


  |--3--|  |--3--|  |--3--|  |--3--|  |--3--|
  S  S  S  S  S  S  S  S  S  S  S  S  S  S  S
----------------------------------12----------|
----------------------------12-13-------15-17-|
----------11-12-14-11-12-14----------16-------|
--9-12-14-------------------------------------|
----------------------------------------------|
----------------------------------------------|


                                    \1/
   T  T  T  T  T  T  T  T  T  T  T  T  E  Q
---------------------------------------------|
--18-17-15-17-18-17-15-----------------------|
-----------------------18-19-18-16-18--L--Ls-|
---------------------------------------------|
---------------------------------------------|
---------------------------------------------|


      PM
  E.  S  S S S S H
--------------------------|
--------------------------|
--------------------------|
--7------5-6-5-L-L--------|
--7------3-4-3-L-L--------|
--5---5--3-4-3-L-L--------|


          PM     PM PM PM    PM PM       PM P
  S   S S S  S S S  S  S   S S  S   S  S S  S
----------------------------------------------|
----------------------------------------------|
----------------------------------------------|
----5g8------8-7----------11-------11-10------|
----3g6---6--6-5-5---------9----9---9--8------|
--------------------0--0-----0-----------0--0-|


      PM
  E.  S  S S S S H
--------------------------|
--------------------------|
--------------------------|
--7------5-6-5-L-L--------|
--7------3-4-3-L-L--------|
--5---5--3-4-3-L-L--------|


          PM     PM PM PM    PM PM       PM P
  S   S S S  S S S  S  S   S S  S   S  S S  S
----------------------------------------------|
-------
Добавлено: 10.05.2012
Вам также может быть интересно:
Другие материалы по этой песне:

Страница создана 10.05.2012
http://primanota.ru/amoral/denial-101-chords.htm
Привет, Гость.
Предлагаем пройти революционный курс по гитаре.
Подарок от PrimaNota.Ru, забирай!