PrimaNota.ru - самый крупный в мире бесплатный архив песенных текстов, аккордов, табулатур и нот


Amoral - Decrowning - таба, видео

Регистрация Запомнить меня
Войти через:  Facebook Google Twitter Vk Yandex Mail.ru

Amoral - Decrowning - таба, видео

Печатать
Просмотров: 202
Уроки эстрадного вокала в Санкт-Петербурге
                Decrowning


                                       Amoral
Guitar (7-string)

     PM PM PM    PM PM PM
     |----3---|
     S  S  E  E  E  E  E  E
E||--------------------------|
B||--------------------------|
G||--------------------------|
D||--------------------------|
A||--------------------------|
E||--------------2-----1-----|
B||--0--0--0--------3-----2--|


  PM PM PM    PM PM PM
  |----3---|
  S  S  E  E  E  E  E  E
--------------------------|
--------------------------|
--------------------------|
--------------------------|
--------------------------|
--------------2-----1-----|
--0--0--0--------3-----2--|


  PM PM PM    PM PM PM
  |----3---|
  S  S  E  E  E  E  E  E
--------------------------|
--------------------------|
--------------------------|
--------------------------|
--------------------------|
--------------2-----1-----|
--0--0--0--------3-----2--|


  PM PM PM    PM PM PM    PM PM PM
  |----3---|  |----3---|  |----3---|
  S  S  E  E  S  S  E  E  S  S  E  E
--------------------------------------|
--------------------------------------|
--------------------------------------|
--------------------------------------|
--------------------------------------|
--7--7--7-----6--6--6-----3--3--3-----|
--------------------------------------|


  H.              H.
---------------|---------------|
---------------|---------------|
---------------|---------------|
---------------|---------------|
--2------------|--5------------|
--2------------|--5------------|
--0------------|--3------------|


  H.              Q    Q    Q
---------------|-----------------|
---------------|-----------------|
---------------|-----------------|
---------------|-----------------|
--4------------|--3----4----3----|
--4------------|--1----2----1----|
--2------------|-----------------|


  H.              H.
---------------|---------------|
---------------|---------------|
---------------|---------------|
---------------|---------------|
--2------------|--2------------|
--2------------|--2------------|
--0------------|--0------------|


  H.
---------------|
---------------|
---------------|
---------------|
--2------------|
--2------------|
--0------------|


  PM PM PM PM PM PM PM PM PM PM PM PM
  S  S  S  S  S  S  S  S  S  S  S  S
--------------------------------------|
--------------------------------------|
--------------------------------------|
--------------------------------------|
--------------------------------------|
--7--7--7--7--6--6--6--6--3--3--3--3--|
--------------------------------------|


  PM PM PM PM PM PM PM PM PM PM PM PM
  S  S  S  S  S  S  S  S  S  S  S  S
--------------------------------------|
--------------------------------------|
--------------------------------------|
--------------------------------------|
--------------------------------------|
--------------------------------------|
--0--0--0--0--0--0--0--0--0--0--0--0--|


  PM PM PM PM PM PM PM PM PM PM PM PM
  S  S  S  S  S  S  S  S  S  S  S  S
--------------------------------------|
--------------------------------------|
--------------------------------------|
--------------------------------------|
--------------------------------------|
--------------------------------------|
--3--3--3--3--3--3--3--3--3--3--3--3--|


  PM PM PM PM PM PM PM PM PM PM PM PM
  S  S  S  S  S  S  S  S  S  S  S  S
--------------------------------------|
--------------------------------------|
--------------------------------------|
--------------------------------------|
--------------------------------------|
--------------------------------------|
--2--2--2--2--2--2--2--2--2--2--2--2--|


  Q    Q    Q       H.
-----------------|---------------|
-----------------|---------------|
-----------------|---------------|
-----------------|---------------|
--3----4----3----|--2------------|
--1----2----1----|--2------------|
-----------------|--0------------|


  H.              H.
---------------|---------------|
---------------|---------------|
---------------|---------------|
---------------|---------------|
--2------------|--2------------|
--2------------|--2------------|
--0------------|--0------------|


  PM PM PM PM PM PM PM PM PM PM PM PM
  S  S  S  S  S  S  S  S  S  S  S  S
--------------------------------------|
--------------------------------------|
--------------------------------------|
--------------------------------------|
--------------------------------------|
--7--7--7--7--6--6--6--6--3--3--3--3--|
--------------------------------------|


  PM PM PM PM PM PM PM PM PM PM PM PM
  S  S  S  S  S  S  S  S  S  S  S  S
--------------------------------------|
--------------------------------------|
--------------------------------------|
--------------------------------------|
--------------------------------------|
--------------------------------------|
--0--0--0--0--0--0--0--0--0--0--0--0--|


  PM PM PM PM PM PM PM PM PM PM PM PM
  S  S  S  S  S  S  S  S  S  S  S  S
--------------------------------------|
--------------------------------------|
--------------------------------------|
--------------------------------------|
--------------------------------------|
--------------------------------------|
--3--3--3--3--3--3--3--3--3--3--3--3--|


  PM PM PM PM PM PM PM PM PM PM PM PM
  S  S  S  S  S  S  S  S  S  S  S  S
--------------------------------------|
--------------------------------------|
--------------------------------------|
--------------------------------------|
--------------------------------------|
--------------------------------------|
--2--2--2--2--2--2--2--2--2--2--2--2--|


                          PM PM PM PM
  Q    Q    Q       E  E  E  E  E  E  E  E
-----------------|--------------------------|
-----------------|--------------------------|
-----------------|--------------------------|
-----------------|--------------------------|
--3----4----3----|--4--3--------------9--8--|
--1----2----1----|--2--1--0--1--0--1--7--6--|
-----------------|--------------------------|


     PM PM PM
  E  E  E  E  E  E  E  E
--------------------------|
--------------------------|
--------------------------|
--------------1--0--------|
--7-----------1--0--3--2--|
--5--2--1--0--------3--2--|
--------------------------|


        PM PM PM PM
  E  E  E  E  E  E  E  E
--------------------------|
--------------------------|
--------------------------|
--------------------------|
--4--3--------------9--8--|
--2--1--0--1--0--1--7--6--|
--------------------------|


     PM PM PM
  E  E  E  E  E  E  E  E
--------------------------|
--------------------------|
--------------------------|
--------------1--0--------|
--7-----------1--0--3--2--|
--5--2--1--0--------3--2--|
--------------------------|


        PM PM PM PM
  E  E  E  E  E  E  E  E
--------------------------|
--------------------------|
--------------------------|
--------------------------|
--4--3--------------9--8--|
--2--1--0--1--0--1--7--6--|
--------------------------|


     PM PM PM
  E  E  E  E  E  E  E  E
--------------------------|
--------------------------|
--------------------------|
--------------1--0--------|
--7-----------1--0--3--2--|
--5--2--1--0--------3--2--|
--------------------------|


        PM PM PM PM
  E  E  E  E  E  E  E  E
--------------------------|
--------------------------|
--------------------------|
--------------------------|
--4--3--------------9--8--|
--2--1--0--1--0--1--7--6--|
--------------------------|


     PM PM PM
  E  E  E  E  E  E  E  E
--------------------------|
--------------------------|
--------------------------|
--------------1--0--------|
--7-----------1--0--3--2--|
--5--2--1--0--------3--2--|
--------------------------|


        PM PM PM PM
  E  E  E  E  E  E  E  E
--------------------------|
--------------------------|
--------------------------|
--------------------------|
--4--3--------------9--8--|
--2--1--0--1--0--1--7--6--|
--------------------------|


     PM PM PM
  E  E  E  E  E  E  E  E
--------------------------|
--------------------------|
--------------------------|
--------------1--0--------|
--7-----------1--0--3--2--|
--5--2--1--0--------3--2--|
--------------------------|


        PM PM PM PM
  E  E  E  E  E  E  E  E
--------------------------|
--------------------------|
--------------------------|
--------------------------|
--4--3--------------9--8--|
--2--1--0--1--0--1--7--6--|
--------------------------|


     PM PM PM
  E  E  E  E  E  E  E  E
--------------------------|
--------------------------|
--------------------------|
--------------1--0--------|
--7-----------1--0--3--2--|
--5--2--1--0--------3--2--|
--------------------------|


        PM PM PM PM
  E  E  E  E  E  E  E  E
--------------------------|
--------------------------|
--------------------------|
--------------------------|
--4--3--------------9--8--|
--2--1--0--1--0--1--7--6--|
--------------------------|


     PM PM PM
  E  E  E  E  E  E  E  E
--------------------------|
--------------------------|
--------------------------|
--------------1--0--------|
--7-----------1--0--3--2--|
--5--2--1--0--------3--2--|
--------------------------|


        PM PM PM PM
  E  E  E  E  E  E  E  E
--------------------------|
--------------------------|
--------------------------|
--------------------------|
--4--3--------------9--8--|
--2--1--0--1--0--1--7--6--|
--------------------------|


     PM PM PM
  E  E  E  E  E  E  E  E
--------------------------|
--------------------------|
--------------------------|
--------------1--0--------|
--7-----------1--0--3--2--|
--5--2--1--0--------3--2--|
--------------------------|


  W                   W
-------------------|-------------------|
-------------------|-------------------|
-------------------|-------------------|
-------------------|-------------------|
-------------------|-------------------|
-------------------|-------------------|
-------------------|-------------------|


  W
-------------------|
-------------------|
-------------------|
-------------------|
-------------------|
-------------------|
-------------------|


  E  E  E  E  E  E  E  E
--------------------------|
--------------------------|
--------------------------|
--------------1--0--------|
--------------1--0--3--2--|
--------------------3--2--|
--------------------------|


  W                   W
-------------------|-------------------|
-------------------|-------------------|
-------------------|-------------------|
-------------------|-------------------|
-------------------|-------------------|
-------------------|-------------------|
-------------------|-------------------|


  W
-------------------|
-------------------|
-------------------|
-------------------|
-------------------|
-------------------|
-------------------|


  E  E  E  E  E  E  E  E
--------------------------|
--------------------------|
--------------------------|
--------------1--0--------|
--------------1--0--3--2--|
--------------------3--2--|
--------------------------|


  W                   W
-------------------|-------------------|
-------------------|-------------------|
-------------------|-------------------|
-------------------|-------------------|
-------------------|-------------------|
-------------------|-------------------|
-------------------|-------------------|


  W
-------------------|
-------------------|
-------------------|
-------------------|
-------------------|
-------------------|
-------------------|


  E  E  E  E  E  E  E  E
--------------------------|
--------------------------|
--------------------------|
--------------1--0--------|
--------------1--0--3--2--|
--------------------3--2--|
--------------------------|


  W                   W
-------------------|-------------------|
-------------------|-------------------|
-------------------|-------------------|
-------------------|-------------------|
-------------------|-------------------|
-------------------|-------------------|
-------------------|-------------------|


  W
-------------------|
-------------------|
-------------------|
-------------------|
-------------------|
-------------------|
-------------------|


  E  E  E  E  E  E  E  E
--------------------------|
--------------------------|
--------------------------|
--------------1--0--------|
--------------1--0--3--2--|
--------------------3--2--|
--------------------------|


  S S S S S S S S S S S S S S S S
----------------------------------|
----------------------------------|
----------------------------------|
----------------------------------|
--5-5-5-5-5-5-5-5-5-5-5-5-5-5-5-5-|
----------------------------------|
----------------------------------|


  S S S S S S S S S S S S S S S S
----------------------------------|
----------------------------------|
----------------------------------|
----------------------------------|
--5-5-5-5-5-5-5-5-5-5-5-5-5-5-5-5-|
----------------------------------|
----------------------------------|


  S S S S S S S S S S S S S S S S
----------------------------------|
----------------------------------|
----------------------------------|
----------------------------------|
--8-8-8-8-8-8-8-8-8-8-8-8-8-8-8-8-|
----------------------------------|
----------------------------------|


  S S S S S S S S S S S S S S S S
----------------------------------|
----------------------------------|
----------------------------------|
----------------------------------|
--8-8-8-8-8-8-8-8-8-8-8-8-8-8-8-8-|
----------------------------------|
----------------------------------|


  Q.     Q.     Q       H        Q    Q
---------------------|---------------------|
---------------------|---------------------|
---------------------|---------------------|
---------------------|---------------------|
--4------3------3----|-----------3---------|
--4------3------3----|-----------3---------|
--2------1------1----|-----------1---------|


            PM   PM
  Q    Q    Q    Q
----------------------|
----------------------|
----------------------|
----------------------|
-------3--------------|
-------3--------------|
-------1----1----1----|


  S S S S S S S S S S S S S S S S
----------------------------------|
----------------------------------|
----------------------------------|
----------------------------------|
--5-5-5-5-5-5-5-5-5-5-5-5-5-5-5-5-|
----------------------------------|
----------------------------------|


  S S S S S S S S S S S S S S S S
----------------------------------|
----------------------------------|
----------------------------------|
----------------------------------|
--5-5-5-5-5-5-5-5-5-5-5-5-5-5-5-5-|
----------------------------------|
----------------------------------|


  S S S S S S S S S S S S S S S S
----------------------------------|
----------------------------------|
----------------------------------|
----------------------------------|
--8-8-8-8-8-8-8-8-8-8-8-8-8-8-8-8-|
----------------------------------|
----------------------------------|


  S S S S S S S S S S S S S S S S
----------------------------------|
----------------------------------|
----------------------------------|
----------------------------------|
--8-8-8-8-8-8-8-8-8-8-8-8-8-8-8-8-|
----------------------------------|
----------------------------------|


  Q.     Q.     Q       H        Q    Q
---------------------|---------------------|
---------------------|---------------------|
---------------------|---------------------|
---------------------|---------------------|
--4------3------3----|-----------3---------|
--4------3------3----|-----------3---------|
--2------1------1----|-----------1---------|


            PM   PM
  Q    Q    Q    Q       H.
----------------------|---------------|
----------------------|---------------|
----------------------|---------------|
----------------------|---------------|
-------3--------------|--2------------|
-------3--------------|--2------------|
-------1----1----1----|--0------------|


  H.              H.
---------------|---------------|
---------------|---------------|
---------------|---------------|
---------------|---------------|
--2------------|--2------------|
--2------------|--2------------|
--0------------|--0------------|


  PM PM PM PM PM PM PM PM PM PM PM PM
  S  S  S  S  S  S  S  S  S  S  S  S
--------------------------------------|
--------------------------------------|
--------------------------------------|
--------------------------------------|
--------------------------------------|
--7--7--7--7--6--6--6--6--3--3--3--3--|
--------------------------------------|


  PM PM PM PM PM PM PM PM PM PM PM PM
  S  S  S  S  S  S  S  S  S  S  S  S
--------------------------------------|
--------------------------------------|
--------------------------------------|
--------------------------------------|
--------------------------------------|
--------------------------------------|
--0--0--0--0--0--0--0--0--0--0--0--0--|


  PM PM PM PM PM PM PM PM PM PM PM PM
  S  S  S  S  S  S  S  S  S  S  S  S
--------------------------------------|
--------------------------------------|
--------------------------------------|
--------------------------------------|
--------------------------------------|
--------------------------------------|
--3--3--3--3--3--3--3--3--3--3--3--3--|


  PM PM PM PM PM PM PM PM PM PM PM PM
  S  S  S  S  S  S  S  S  S  S  S  S
--------------------------------------|
--------------------------------------|
--------------------------------------|
--------------------------------------|
--------------------------------------|
--------------------------------------|
--2--2--2--2--2--2--2--2--2--2--2--2--|


  Q    Q    Q       H.
-----------------|---------------|
-----------------|---------------|
-----------------|---------------|
-----------------|---------------|
--3----4----3----|--2------------|
--1----2----1----|--2------------|
-----------------|--0------------|


  H.              H.
---------------|---------------|
---------------|---------------|
---------------|---------------|
---------------|---------------|
--2------------|--2------------|
--2------------|--2------------|
--0------------|--0------------|


  PM PM PM PM PM PM PM PM PM PM PM PM
  S  S  S  S  S  S  S  S  S  S  S  S
--------------------------------------|
--------------------------------------|
--------------------------------------|
--------------------------------------|
--------------------------------------|
--7--7--7--7--6--6--6--6--3--3--3--3--|
--------------------------------------|


  PM PM PM PM PM PM PM PM PM PM PM PM
  S  S  S  S  S  S  S  S  S  S  S  S
--------------------------------------|
--------------------------------------|
--------------------------------------|
--------------------------------------|
--------------------------------------|
--------------------------------------|
--0--0--0--0--0--0--0--0--0--0--0--0--|


  PM PM PM PM PM PM PM PM PM PM PM PM
  S  S  S  S  S  S  S  S  S  S  S  S
--------------------------------------|
--------------------------------------|
--------------------------------------|
--------------------------------------|
--------------------------------------|
--------------------------------------|
--3--3--3--3--3--3--3--3--3--3--3--3--|


  PM PM PM PM PM PM PM PM PM PM PM PM
  S  S  S  S  S  S  S  S  S  S  S  S
--------------------------------------|
--------------------------------------|
--------------------------------------|
--------------------------------------|
--------------------------------------|
--------------------------------------|
--2--2--2--2--2--2--2--2--2--2--2--2--|


                          PM PM PM PM
  Q    Q    Q       E  E  E  E  E  E  E  E
-----------------|--------------------------|
-----------------|--------------------------|
-----------------|--------------------------|
-----------------|--------------------------|
--3----4----3----|--4--3--------------9--8--|
--1----2----1----|--2--1--0--1--0--1--7--6--|
-----------------|--------------------------|


     PM PM PM
  E  E  E  E  E  E  E  E
--------------------------|
--------------------------|
--------------------------|
--------------1--0--------|
--7-----------1--0--3--2--|
--5--2--1--0--------3--2--|
--------------------------|


        PM PM PM PM
  E  E  E  E  E  E  E  E
--------------------------|
--------------------------|
--------------------------|
--------------------------|
--4--3--------------9--8--|
--2--1--0--1--0--1--7--6--|
--------------------------|


     PM PM PM
  E  E  E  E  E  E  E  E
--------------------------|
--------------------------|
--------------------------|
--------------1--0--------|
--7-----------1--0--3--2--|
--5--2--1--0--------3--2--|
--------------------------|


        PM PM PM PM
  E  E  E  E  E  E  E  E
--------------------------|
--------------------------|
--------------------------|
--------------------------|
--4--3--------------9--8--|
--2--1--0--1--0--1--7--6--|
--------------------------|


     PM PM PM
  E  E  E  E  E  E  E  E
--------------------------|
--------------------------|
--------------------------|
--------------1--0--------|
--7-----------1--0--3--2--|
--5--2--1--0--------3--2--|
--------------------------|


        PM PM PM PM
  E  E  E  E  E  E  E  E
--------------------------|
--------------------------|
--------------------------|
--------------------------|
--4--3--------------9--8--|
--2--1--0--1--0--1--7--6--|
--------------------------|


     PM PM PM
  E  E  E  E  E  E  E  E
--------------------------|
--------------------------|
--------------------------|
--------------1--0--------|
--7-----------1--0--3--2--|
--5--2--1--0--------3--2--|
--------------------------|


        PM PM PM PM
  E  E  E  E  E  E  E  E
--------------------------|
--------------------------|
--------------------------|
--------------------------|
--4--3--------------9--8--|
--2--1--0--1--0--1--7--6--|
--------------------------|


     PM PM PM
  E  E  E  E  E  E  E  E
--------------------------|
--------------------------|
--------------------------|
--------------1--0--------|
--7-----------1--0--3--2--|
--5--2--1--0--------3--2--|
--------------------------|


        PM PM PM PM
  E  E  E  E  E  E  E  E
--------------------------|
--------------------------|
--------------------------|
--------------------------|
--4--3--------------9--8--|
--2--1--0--1--0--1--7--6--|
--------------------------|


     PM PM PM
  E  E  E  E  E  E  E  E
--------------------------|
--------------------------|
--------------------------|
--------------1--0--------|
--7-----------1--0--3--2--|
--5--2--1--0--------3--2--|
--------------------------|


        PM PM PM PM
  E  E  E  E  E  E  E  E
--------------------------|
--------------------------|
--------------------------|
--------------------------|
--4--3--------------9--8--|
--2--1--0--1--0--1--7--6--|
--------------------------|


     PM PM PM
  E  E  E  E  E  E  E  E
--------------------------|
--------------------------|
--------------------------|
--------------1--0--------|
--7-----------1--0--3--2--|
--5--2--1--0--------3--2--|
--------------------------|


        PM PM PM PM
  E  E  E  E  E  E  E  E
--------------------------|
--------------------------|
--------------------------|
--------------------------|
--4--3--------------9--8--|
--2--1--0--1--0--1--7--6--|
--------------------------|


     PM PM PM
  E  E  E  E  E  E  E  E
--------------------------|
--------------------------|
--------------------------|
--------------1--0--------|
--7-----------1--0--3--2--|
--5--2--1--0--------3--2--|
--------------------------|


  E  E  Q    E  E  E  E  E  Q    E  E  E
------------------------------------------|
------------------------------------------|
-------------7-------------------7--------|
--------8-------8-----------8-------8-----|
-----6-------------6-----6-------------6--|
--8-------------------8-------------------|
------------------------------------------|


  E  E  E  E  E  E  E  E
--------------------------|
--------------0--L--L-----|
-----------0--L--0--L-----|
--------4-----------4-----|
-----2-----------------2--|
--4-----------------------|
--------------------------|


  E  E  E  E  E  E  E  E
--------------------------|
--------------------------|
--------0-----------0-----|
-----------4-----------4--|
-----2-----------2--------|
--3-----------0-----------|
--------------------------|


  E  E  Q    E  E  E  E  E  Q    E  E  E
------------------------------------------|
------------------------------------------|
-------------7-------------------7--------|
--------8-------8-----------8-------8-----|
-----6-------------6-----6-------------6--|
--8-------------------8-------------------|
------------------------------------------|


  E  E  E  E  E  E  E  E
--------------------------|
--------------0--L--L-----|
-----------0--L--0--L-----|
--------4-----------4-----|
-----2-----------------2--|
--4-----------------------|
--------------------------|


  E  E  E  E  E  E  E  E
--------------------------|
--------------------------|
--------0-----------0-----|
-----------4-----------4--|
-----2-----------2--------|
--3-----------0-----------|
--------------------------|


  PM PM PM   PM PM PM PM PM PM      PM PM
  E  E  Q    E  E  E  E  E  Q    E  E  E
------------------------------------------|
------------------------------------------|
-------------7-------------------7--L-----|
--------8-------8-----------8-------8-----|
-----6-------------6-----6-------------6--|
--8-------------------8-------------------|
------------------------------------------|


  PM PM PM          PM PM
  E  E  E  E  E  E  E  E
--------------------------|
--------------0--L--L-----|
-----------0--L--0--L-----|
--------4-----------4-----|
-----2-----------------2--|
--4-----------------------|
--------------------------|


  PM PM PM PM PM PM PM PM
  E  E  E  E  E  E  E  E
--------------------------|
--------------------------|
--------0-----------0-----|
-----------4-----------4--|
-----2-----------2--------|
--3-----------0-----------|
--------------------------|


  PM PM PM   PM PM PM PM PM PM      PM PM
  E  E  Q    E  E  E  E  E  Q    E  E  E
------------------------------------------|
------------------------------------------|
-------------7-------------------7--L-----|
--------8-------8-----------8-------8-----|
-----6-------------6-----6-------------6--|
--8-------------------8-------------------|
------------------------------------------|


  PM PM PM          PM PM
  E  E  E  E  E  E  E  E
--------------------------|
--------------0--L--L-----|
-----------0--L--0--L-----|
--------4-----------4-----|
-----2-----------------2--|
--4-----------------------|
--------------------------|


  PM PM PM PM PM PM PM PM
  E  E  E  E  E  E  E  E
--------------------------|
--------------------------|
--------0-----------0-----|
-----------4-----------4--|
-----2-----------2--------|
--3-----------0-----------|
--------------------------|


  E  E  Q    E  E  E  E  E  Q    E  E  E
------------------------------------------|
------------------------------------------|
-------------7-------------------7--------|
--------8-------8-----------8-------8-----|
-----6-------------6-----6-------------6--|
--8-------------------8-------------------|
------------------------------------------|


  E  E  E  E  E  E  E  E
--------------------------|
--------------0--L--L-----|
-----------0--L--0--L-----|
--------4-----------4-----|
-----2-----------------2--|
--4-----------------------|
--------------------------|


  E  E  E  E  E  E  E  E
--------------------------|
--------------------------|
--------0-----------0-----|
-----------4-----------4--|
-----2-----------2--------|
--3-----------0-----------|
--------------------------|


  E  E  Q    E  E  E  E  E  Q    E  E  E
------------------------------------------|
------------------------------------------|
-------------7-------------------7--------|
--------8-------8-----------8-------8-----|
-----6-------------6-----6-------------6--|
--8-------------------8-------------------|
------------------------------------------|


  E  E  E  E  E  E  E  E
--------------------------|
--------------0--L--L-----|
-----------0--L--0--L-----|
--------4-----------4-----|
-----2-----------------2--|
--4-----------------------|
--------------------------|


  E  E  E  E  E  E  E  E
--------------------------|
--------------------------|
--------0-----------0-----|
-----------4-----------4--|
-----2-----------2--------|
--3-----------0-----------|
--------------------------|


  S S S S S S S S S S S S S S S S
----------------------------------|
----------------------------------|
----------------------------------|
----------------------------------|
--5-5-5-5-5-5-5-5-5-5-5-5-5-5-5-5-|
----------------------------------|
----------------------------------|


  S S S S S S S S S S S S S S S S
----------------------------------|
----------------------------------|
----------------------------------|
----------------------------------|
--5-5-5-5-5-5-5-5-5-5-5-5-5-5-5-5-|
----------------------------------|
----------------------------------|


  S S S S S S S S S S S S S S S S
----------------------------------|
----------------------------------|
----------------------------------|
----------------------------------|
--8-8-8-8-8-8-8-8-8-8-8-8-8-8-8-8-|
----------------------------------|
----------------------------------|


  S S S S S S S S S S S S S S S S
----------------------------------|
----------------------------------|
----------------------------------|
----------------------------------|
--8-8-8-8-8-8-8-8-8-8-8-8-8-8-8-8-|
----------------------------------|
----------------------------------|


  Q.     Q.     Q       H        Q    Q
---------------------|---------------------|
---------------------|---------------------|
---------------------|---------------------|
---------------------|---------------------|
--4------3------3----|-----------3---------|
--4------3------3----|-----------3---------|
--2------1------1----|-----------1---------|


            PM   PM
  Q    Q    Q    Q
----------------------|
----------------------|
----------------------|
----------------------|
-------3--------------|
-------3--------------|
-------1----1----1----|


  S S S S S S S S S S S S S S S S
----------------------------------|
----------------------------------|
----------------------------------|
----------------------------------|
--5-5-5-5-5-5-5-5-5-5-5-5-5-5-5-5-|
----------------------------------|
----------------------------------|


  S S S S S S S S S S S S S S S S
----------------------------------|
----------------------------------|
----------------------------------|
----------------------------------|
--5-5-5-5-5-5-5-5-5-5-5-5-5-5-5-5-|
----------------------------------|
----------------------------------|


  S S S S S S S S S S S S S S S S
----------------------------------|
----------------------------------|
----------------------------------|
----------------------------------|
--8-8-8-8-8-8-8-8-8-8-8-8-8-8-8-8-|
----------------------------------|
----------------------------------|


  S S S S S S S S S S S S S S S S
----------------------------------|
----------------------------------|
----------------------------------|
----------------------------------|
--8-8-8-8-8-8-8-8-8-8-8-8-8-8-8-8-|
----------------------------------|
----------------------------------|


  Q.     Q.     Q       H        Q    Q
---------------------|---------------------|
---------------------|---------------------|
---------------------|---------------------|
---------------------|---------------------|
--4------3------3----|-----------3---------|
--4------3------3----|-----------3---------|
--2------1------1----|-----------1---------|


            PM   PM
  Q    Q    Q    Q       W
----------------------|-------------------|
----------------------|-------------------|
----------------------|-------------------|
----------------------|-------------------|
-------3--------------|--2----------------|
-------3--------------|--2----------------|
-------1----1----1----|--0----------------|


  E   E  E  E  Q.     E
-------------------------|
-------------------------|
-------------------------|
-------------------------|
--L------------2------5--|
--L--/7--6--3--2------5--|
--L------------0------3--|


  Q    Q.     E  E  E     W
-----------------------|-------------------|
-----------------------|-------------------|
-----------------------|-------------------|
--------------3--4--3--|-------------------|
--L----4------3--4--3--|--2----------------|
--L----4------1--2--1--|--2----------------|
--L----2---------------|--0----------------|


  E   E  E  E  Q.     E
-------------------------|
-------------------------|
-------------------------|
-------------------------|
--L------------2------5--|
--L--/7--6--3--2---------|
--L------------0---------|


  Q    Q.     E  E  E
-----------------------|
-----------------------|
-----------------------|
--------------3--4--3--|
--L----4---------------|
-----------------------|
-----------------------|


  Heavy Palm-muting
  PM                PM PM   PM PM PM     PM P
  |----------3---------|    |--3--|      |--3
  T                 T  E  S T  T  E  E.  T  T
----------------------------------------------|
----------------------------------------------|
----------------------------------------------|
----------------------------------------------|
----------------------------------------------|
----------------------------------------------|
--0-----------------0--0----0--0--0------0--0-|


    PM PM PM   PM PM PM   PM PM PM
    |--3--|    |--3--|    |--3--|
  S T  T  E  S T  T  E  S T  T  E  S S S S S
---------------------------------------------|
---------------------------------------------|
---------------------------------------------|
---------------------------------------------|
-------------------------------------3---2---|
--L------------------------------------5---3-|
----0--0--0----0--0--0----0--0--0------------|


  Heavy Palm-muting
  PM                PM PM   PM PM PM     PM P
  |----------3---------|    |--3--|      |--3
  T                 T  E  S T  T  E  E.  T  T
----------------------------------------------|
----------------------------------------------|
----------------------------------------------|
----------------------------------------------|
----------------------------------------------|
----------------------------------------------|
--0-----------------0--0----0--0--0------0--0-|


    PM PM PM   PM PM PM   PM PM PM
    |--3--|    |--3--|    |--3--|
  S T  T  E  S T  T  E  S T  T  E  S S S S S
---------------------------------------------|
---------------------------------------------|
---------------------------------------------|
---------------------------------------------|
-------------------------------------3---2---|
--L------------------------------------5---3-|
----0--0--0----0--0--0----0--0--0------------|


  Heavy Palm-muting
  PM                PM PM   PM PM PM     PM P
  |----------3---------|    |--3--|      |--3
  T                 T  E  S T  T  E  E.  T  T
----------------------------------------------|
----------------------------------------------|
----------------------------------------------|
----------------------------------------------|
----------------------------------------------|
----------------------------------------------|
--0-----------------0--0----0--0--0------0--0-|


    PM PM PM   PM PM PM   PM PM PM
    |--3--|    |--3--|    |--3--|
  S T  T  E  S T  T  E  S T  T  E  S S S S S
---------------------------------------------|
---------------------------------------------|
---------------------------------------------|
---------------------------------------------|
-------------------------------------3---2---|
--L------------------------------------5---3-|
----0--0--0----0--0--0----0--0--0------------|


  Heavy Palm-muting
  PM                PM PM   PM PM PM     PM P
  |----------3---------|    |--3--|      |--3
  T                 T  E  S T  T  E  E.  T  T
----------------------------------------------|
----------------------------------------------|
----------------------------------------------|
----------------------------------------------|
----------------------------------------------|
----------------------------------------------|
--0-----------------0--0----0--0--0------0--0-|


    PM PM PM   PM PM PM   PM PM PM
    |--3--|    |--3--|    |--3--|
  S T  T  E  S T  T  E  S T  T  E  S S S S S
---------------------------------------------|
---------------------------------------------|
---------------------------------------------|
---------------------------------------------|
-------------------------------------3---2---|
--L------------------------------------5---3-|
----0--0--0----0--0--0----0--0--0------------|


  Heavy Palm-muting
  PM                PM PM   PM PM PM     PM P
  |----------3---------|    |--3--|      |--3
  T                 T  E  S T  T  E  E.  T  T
----------------------------------------------|
----------------------------------------------|
----------------------------------------------|
----------------------------------------------|
----------------------------------------------|
----------------------------------------------|
--1-----------------1--1----1--1--1------1--1-|


    Heavy Palm-muting
    PM                PM PM   PM PM PM   PM P
    |----------3---------|    |--3--|    |--3
  S T                 T  E  S T  T  E  S T  T
----------------------------------------------|
----------------------------------------------|
----------------------------------------------|
----------------------------------------------|
--L-------------------------------------------|
--L-------------------------------------------|
--L-1-----------------1--1----1--1--1----1--1-|


  Heavy Palm-muting
  PM                PM PM   PM PM PM     PM P
  |----------3---------|    |--3--|      |--3
  T                 T  E  S T  T  E  E.  T  T
----------------------------------------------|
----------------------------------------------|
----------------------------------------------|
----------------------------------------------|
----------------------------------------------|
----------------------------------------------|
--1-----------------1--1----1--1--1------1--1-|


    Heavy Palm-muting
    PM                PM PM   PM PM PM   PM P
    |----------3---------|    |--3--|    |--3
  S T                 T  E  S T  T  E  S T  T
----------------------------------------------|
----------------------------------------------|
----------------------------------------------|
----------------------------------------------|
--L-------------------------------------------|
--L-------------------------------------------|
--L-1-----------------1--1----1--1--1----1--1-|


  Light Palm-muting
  PM                PM PM    PM PM PM      PM
  |----------3---------|     |--3--|       |-
  T                 T  T  E  T  T  T  Q    T
---------------------------------------------|
---------------------------------------------|
---------------------------------------------|
---------------------------------------------|
---------------------------------------------|
---------------------------------------------|
--1-----------------1--1--L--1--1--1--L----1-|


    Light Palm-muting
    PM                PM PM    PM PM PM    PM
    |----------3---------|     |--3--|     |-
  S T                 T  T  E  T  T  T  E  T
---------------------------------------------|
---------------------------------------------|
---------------------------------------------|
---------------------------------------------|
--L------------------------------------------|
--L------------------------------------------|
--L-1-----------------1--1--L--1--1--1--L--1-|


  Light Palm-muting
  PM                PM PM    PM PM PM      PM
  |----------3---------|     |--3--|       |-
  T                 T  T  E  T  T  T  Q    T
---------------------------------------------|
---------------------------------------------|
---------------------------------------------|
---------------------------------------------|
---------------------------------------------|
---------------------------------------------|
--1-----------------1--1--L--1--1--1--L----1-|


    Light Palm-muting
    PM                PM PM    PM PM PM    PM
    |----------3---------|     |--3--|     |-
  S T                 T  T  E  T  T  T  E  T
---------------------------------------------|
---------------------------------------------|
---------------------------------------------|
---------------------------------------------|
--L------------------------------------------|
--L------------------------------------------|
--L-1-----------------1--1--L--1--1--1--L--1-|


  W                   E  E  E  E  Q.     E
-------------------|------------------------|
-------------------|------------------------|
-------------------|------------------------|
-------------------|------------------------|
-------------------|------------------------|
-------------------|-----7--6--3------------|
--0----------------|--L-----------0------3--|


  Q    Q.     E  E  E     W
-----------------------|-------------------|
-----------------------|-------------------|
-----------------------|-------------------|
-----------------------|-------------------|
-----------------------|-------------------|
--------------1--2--1--|-------------------|
--L----2---------------|--0----------------|


  E  E  E  E  Q.     E
-------------------------|
-------------------------|
-------------------------|
-------------------------|
-------------------------|
-----7--6--3-------------|
--L-----------0------7~--|


  Q    Q.      E  E  E     H.
------------------------|---------------|
------------------------|---------------|
------------------------|---------------|
------------------------|---------------|
------------------------|--2------------|
---------------5--6--5--|--2------------|
--L----6~---------------|--0------------|


  H.              H.
---------------|---------------|
---------------|---------------|
---------------|---------------|
---------------|---------------|
--2------------|--2------------|
--2------------|--2------------|
--0------------|--0------------|


  PM PM PM PM PM PM PM PM PM PM PM PM
  S  S  S  S  S  S  S  S  S  S  S  S
--------------------------------------|
--------------------------------------|
--------------------------------------|
--------------------------------------|
--------------------------------------|
--7--7--7--7--6--6--6--6--3--3--3--3--|
--------------------------------------|


  PM PM PM PM PM PM PM PM PM PM PM PM
  S  S  S  S  S  S  S  S  S  S  S  S
--------------------------------------|
--------------------------------------|
--------------------------------------|
--------------------------------------|
--------------------------------------|
--------------------------------------|
--0--0--0--0--0--0--0--0--0--0--0--0--|


  PM PM PM PM PM PM PM PM PM PM PM PM
  S  S  S  S  S  S  S  S  S  S  S  S
--------------------------------------|
--------------------------------------|
--------------------------------------|
--------------------------------------|
--------------------------------------|
--------------------------------------|
--3--3--3--3--3--3--3--3--3--3--3--3--|


  PM PM PM PM PM PM PM PM PM PM PM PM
  S  S  S  S  S  S  S  S  S  S  S  S
--------------------------------------|
--------------------------------------|
--------------------------------------|
--------------------------------------|
--------------------------------------|
--------------------------------------|
--2--2--2--2--2--2--2--2--2--2--2--2--|


  Q    Q    Q       H.
-----------------|---------------|
-----------------|---------------|
-----------------|---------------|
-----------------|---------------|
--3----4----3----|--2------------|
--1----2----1----|--2------------|
-----------------|--0------------|


  H.              H.
---------------|---------------|
---------------|---------------|
---------------|---------------|
---------------|---------------|
--2------------|--2------------|
--2------------|--2------------|
--0------------|--0------------|


  PM PM PM PM PM PM PM PM PM PM PM PM
  S  S  S  S  S  S  S  S  S  S  S  S
--------------------------------------|
--------------------------------------|
--------------------------------------|
--------------------------------------|
--------------------------------------|
--7--7--7--7--6--6--6--6--3--3--3--3--|
--------------------------------------|


  PM PM PM PM PM PM PM PM PM PM PM PM
  S  S  S  S  S  S  S  S  S  S  S  S
--------------------------------------|
--------------------------------------|
--------------------------------------|
--------------------------------------|
--------------------------------------|
--------------------------------------|
--0--0--0--0--0--0--0--0--0--0--0--0--|


  PM PM PM PM PM PM PM PM PM PM PM PM
  S  S  S  S  S  S  S  S  S  S  S  S
--------------------------------------|
--------------------------------------|
--------------------------------------|
--------------------------------------|
--------------------------------------|
--------------------------------------|
--3--3--3--3--3--3--3--3--3--3--3--3--|


  PM PM PM PM PM PM PM PM PM PM PM PM
  S  S  S  S  S  S  S  S  S  S  S  S
--------------------------------------|
--------------------------------------|
--------------------------------------|
--------------------------------------|
--------------------------------------|
--------------------------------------|
--2--2--2--2--2--2--2--2--2--2--2--2--|


  Q    Q    Q
-----------------|
-----------------|
-----------------|
-----------------|
--3----4----3----|
--1----2----1----|
-----------------|


  S S S S S S S S S S S S S S S S
----------------------------------|
----------------------------------|
----------------------------------|
----------------------------------|
--5-5-5-5-5-5-5-5-5-5-5-5-5-5-5-5-|
----------------------------------|
----------------------------------|


  S S S S S S S S S S S S S S S S
----------------------------------|
----------------------------------|
----------------------------------|
----------------------------------|
--5-5-5-5-5-5-5-5-5-5-5-5-5-5-5-5-|
----------------------------------|
----------------------------------|


  S S S S S S S S S S S S S S S S
----------------------------------|
----------------------------------|
----------------------------------|
----------------------------------|
--8-8-8-8-8-8-8-8-8-8-8-8-8-8-8-8-|
----------------------------------|
----------------------------------|


  S S S S S S S S S S S S S S S S
----------------------------------|
----------------------------------|
----------------------------------|
----------------------------------|
--8-8-8-8-8-8-8-8-8-8-8-8-8-8-8-8-|
----------------------------------|
----------------------------------|


  Q.     Q.     Q       H        Q    Q
---------------------|---------------------|
---------------------|---------------------|
---------------------|---------------------|
---------------------|---------------------|
--4------3------3----|-----------3---------|
--4------3------3----|-----------3---------|
--2------1------1----|-----------1---------|


            PM   PM
  Q    Q    Q    Q
----------------------|
----------------------|
----------------------|
----------------------|
-------3--------------|
-------3--------------|
-------1----1----1----|


  S S S S S S S S S S S S S S S S
----------------------------------|
----------------------------------|
----------------------------------|
----------------------------------|
--5-5-5-5-5-5-5-5-5-5-5-5-5-5-5-5-|
----------------------------------|
----------------------------------|


  S S S S S S S S S S S S S S S S
----------------------------------|
----------------------------------|
----------------------------------|
----------------------------------|
--5-5-5-5-5-5-5-5-5-5-5-5-5-5-5-5-|
----------------------------------|
----------------------------------|


  S S S S S S S S S S S S S S S S
----------------------------------|
----------------------------------|
----------------------------------|
----------------------------------|
--8-8-8-8-8-8-8-8-8-8-8-8-8-8-8-8-|
----------------------------------|
----------------------------------|


  S S S S S S S S S S S S S S S S
----------------------------------|
----------------------------------|
----------------------------------|
----------------------------------|
--8-8-8-8-8-8-8-8-8-8-8-8-8-8-8-8-|
----------------------------------|
----------------------------------|


  Q.     Q.     Q       H        Q    Q
---------------------|---------------------|
---------------------|---------------------|
---------------------|---------------------|
---------------------|---------------------|
--4------3------3----|-----------3---------|
--4------3------3----|-----------3---------|
--2------1------1----|-----------1---------|


            PM   PM
  Q    Q    Q    Q
----------------------|
----------------------|
----------------------|
----------------------|
-------3--------------|
-------3--------------|
-------1----1----1----|


  PM PM PM
  |----3---|
  S  S  E  E  E  E  E  E
--------------------------|
--------------------------|
--------------------------|
--------------------------|
--------------------------|
--------------2-----1-----|
--0--0--0--------3-----2--|


  PM PM PM
  |----3---|
  S  S  E  E  E  E  E  E
--------------------------|
--------------------------|
--------------------------|
--------------------------|
--------------------------|
--------------2-----1-----|
--0--0--0--------3-----2--|


  PM PM PM
  |----3---|
  S  S  E  E  E  E  E  E
--------------------------|
--------------------------|
--------------------------|
--------------------------|
--------------------------|
--------------2-----1-----|
--0--0--0--------3-----2--|


   Q    Q    Q       H.
------------------|---------------|
------------------|---------------|
------------------|---------------|
------------------|---------------|
------------------|--2------------|
--/7----6----3----|--2------------|
------------------|--0------------|


  H.              H.
---------------|---------------|
---------------|---------------|
---------------|---------------|
---------------|---------------|
--5------------|--4------------|
--5------------|--4------------|
--3------------|--2------------|


  Q    Q    Q       Q.       Q.
-----------------|-------------------||
-----------------|-------------------||
-----------------|-------------------||
--3----4----3----|--9S------(x)------||
--3----4----3----|--9S------(x)------||
--1----2----1----|--7S------(x)------||
-----------------|-------------------||

                Decrowning


                                       Amoral
Guitar (6-string)

     H        Q       H        Q
E||----------------|----------------|
B||----------------|----------------|
G||----------------|----------------|
D||----------------|----------------|
A||----------------|----------------|
E||----------------|----------------|


  H        Q
----------------|
----------------|
----------------|
----------------|
----------------|
----------------|


  PM PM PM    PM PM PM    PM PM PM
  |----3---|  |----3---|  |----3---|
  S  S  E  E  S  S  E  E  S  S  E  E
--------------------------------------|
--------------------------------------|
--------------------------------------|
--------------------------------------|
--------------------------------------|
--7--7--7-----6--6--6-----3--3--3-----|


  PM PM PM    PM  PM PM PM
  |----3---|
  S  S  E  E  E   E  E  E
---------------------------|
---------------------------|
---------------------------|
---------------------------|
--------------9------8-----|
--7--7--7--------10-----9--|


  PM PM PM    PM  PM PM PM
  |----3---|
  S  S  E  E  E   E  E  E
---------------------------|
---------------------------|
---------------------------|
---------------------------|
--------------9------8-----|
--7--7--7--------10-----9--|


  PM PM PM    PM  PM PM PM
  |----3---|
  S  S  E  E  E   E  E  E
---------------------------|
---------------------------|
---------------------------|
---------------------------|
--------------9------8-----|
--7--7--7--------10-----9--|


  Q    Q    Q
-----------------|
-----------------|
-----------------|
-----------------|
--3----4----3----|
--1----2----1----|


  PM PM PM    PM  PM PM PM
  |----3---|
  S  S  E  E  E   E  E  E
---------------------------|
---------------------------|
---------------------------|
---------------------------|
--------------9------8-----|
--7--7--7--------10-----9--|


  PM PM PM    PM  PM PM PM
  |----3---|
  S  S  E  E  E   E  E  E
---------------------------|
---------------------------|
---------------------------|
---------------------------|
--------------9------8-----|
--7--7--7--------10-----9--|


  PM PM PM    PM  PM PM PM
  |----3---|
  S  S  E  E  E   E  E  E
---------------------------|
---------------------------|
---------------------------|
---------------------------|
--------------9------8-----|
--7--7--7--------10-----9--|


  PM PM PM PM PM PM
  E  E  E  E  E  E
--------------------|
--------------------|
--------------------|
--------------------|
--5--2--4--1--------|
--------------6--3--|


  PM PM PM    PM  PM PM PM
  |----3---|
  S  S  E  E  E   E  E  E
---------------------------|
---------------------------|
---------------------------|
---------------------------|
--------------9------8-----|
--7--7--7--------10-----9--|


  PM PM PM    PM  PM PM PM
  |----3---|
  S  S  E  E  E   E  E  E
---------------------------|
---------------------------|
---------------------------|
---------------------------|
--------------9------8-----|
--7--7--7--------10-----9--|


  PM PM PM    PM  PM PM PM
  |----3---|
  S  S  E  E  E   E  E  E
---------------------------|
---------------------------|
---------------------------|
---------------------------|
--------------9------8-----|
--7--7--7--------10-----9--|


  PM PM PM PM PM PM
  E  E  E  E  E  E
--------------------|
--------------------|
--------------------|
--------------------|
--5--2--4--1--------|
--------------6--3--|


  PM PM PM
  |----3---|
  S  S  E  E   E   E   E   E
------------------------------|
------------------------------|
--------------11------10------|
--9--9--9---------12------11--|
------------------------------|
------------------------------|


  PM PM PM
  |----3---|
  S  S  E  E   E   E   E   E
------------------------------|
------------------------------|
--------------11------10------|
--9--9--9---------12------11--|
------------------------------|
------------------------------|


  PM PM PM
  |----3---|
  S  S  E  E   E   E   E   E
------------------------------|
------------------------------|
--------------11------10------|
--9--9--9---------12------11--|
------------------------------|
------------------------------|


   E  E   E  E  E   E
-----------------------|
-----------------------|
-----------------------|
--12--9--11--8--8------|
-------------------10--|
-----------------------|


  PM PM PM
  |----3---|
  S  S  E  E   E   E   E   E
------------------------------|
------------------------------|
--------------11------10------|
--9--9--9---------12------11--|
------------------------------|
------------------------------|


  PM PM PM
  |----3---|
  S  S  E  E   E   E   E   E
------------------------------|
------------------------------|
--------------11------10------|
--9--9--9---------12------11--|
------------------------------|
------------------------------|


  PM PM PM
  |----3---|
  S  S  E  E   E   E   E   E
------------------------------|
------------------------------|
--------------11------10------|
--9--9--9---------12------11--|
------------------------------|
------------------------------|


   E  E   E  E  E   E
-----------------------|
-----------------------|
-----------------------|
--12--9--11--8--8------|
-------------------10--|
-----------------------|


        PM PM PM PM
  E  E  E  E  E  E  E  E
--------------------------|
--------------------------|
--------------------------|
--------------------------|
--4--3--------------9--8--|
--2--1--0--1--0--1--7--6--|


     PM PM PM
  E  E  E  E  E  E  E  E
--------------------------|
--------------------------|
--------------------------|
--------------1--0--------|
--7-----------1--0--3--2--|
--5--2--1--0--------3--2--|


        PM PM PM PM
  E  E  E  E  E  E  E  E
--------------------------|
--------------------------|
--------------------------|
--------------------------|
--4--3--------------9--8--|
--2--1--0--1--0--1--7--6--|


     PM PM PM
  E  E  E  E  E  E  E  E
--------------------------|
--------------------------|
--------------------------|
--------------1--0--------|
--7-----------1--0--3--2--|
--5--2--1--0--------3--2--|


        PM PM PM PM
  E  E  E  E  E  E  E  E
--------------------------|
--------------------------|
--------------------------|
--------------------------|
--4--3--------------9--8--|
--2--1--0--1--0--1--7--6--|


     PM PM PM
  E  E  E  E  E  E  E  E
--------------------------|
--------------------------|
--------------------------|
--------------1--0--------|
--7-----------1--0--3--2--|
--5--2--1--0--------3--2--|


        PM PM PM PM
  E  E  E  E  E  E  E  E
--------------------------|
--------------------------|
--------------------------|
--------------------------|
--4--3--------------9--8--|
--2--1--0--1--0--1--7--6--|


     PM PM PM
  E  E  E  E  E  E  E  E
--------------------------|
--------------------------|
--------------------------|
--------------1--0--------|
--7-----------1--0--3--2--|
--5--2--1--0--------3--2--|


        PM PM PM PM
  E  E  E  E  E  E  E  E
--------------------------|
--------------------------|
--------------------------|
--------------------------|
--4--3--------------9--8--|
--2--1--0--1--0--1--7--6--|


     PM PM PM
  E  E  E  E  E  E  E  E
--------------------------|
--------------------------|
--------------------------|
--------------1--0--------|
--7-----------1--0--3--2--|
--5--2--1--0--------3--2--|


        PM PM PM PM
  E  E  E  E  E  E  E  E
--------------------------|
--------------------------|
--------------------------|
--------------------------|
--4--3--------------9--8--|
--2--1--0--1--0--1--7--6--|


     PM PM PM
  E  E  E  E  E  E  E  E
--------------------------|
--------------------------|
--------------------------|
--------------1--0--------|
--7-----------1--0--3--2--|
--5--2--1--0--------3--2--|


        PM PM PM PM
  E  E  E  E  E  E  E  E
--------------------------|
--------------------------|
--------------------------|
--------------------------|
--4--3--------------9--8--|
--2--1--0--1--0--1--7--6--|


     PM PM PM
  E  E  E  E  E  E  E  E
--------------------------|
--------------------------|
--------------------------|
--------------1--0--------|
--7-----------1--0--3--2--|
--5--2--1--0--------3--2--|


        PM PM PM PM
  E  E  E  E  E  E  E  E
--------------------------|
--------------------------|
--------------------------|
--------------------------|
--4--3--------------9--8--|
--2--1--0--1--0--1--7--6--|


     PM PM PM
  E  E  E  E  E  E  E  E
--------------------------|
--------------------------|
--------------------------|
--------------1--0--------|
--7-----------1--0--3--2--|
--5--2--1--0--------3--2--|


   Q     E   Q     E   Q
-----------------------------|
------------14---------------|
--------17--------17---------|
--16------------------16b----|
-----------------------------|
-----------------------------|


   E   Q     E   E   E   E   E
--------------------------------|
------------------------17------|
------17-----L------------------|
---L--------17--16--17------17--|
--------------------------------|
--------------------------------|


   Q     E   Q     E   Q
-----------------------------|
------------14---------------|
--------17--------17---------|
--16------------------16b----|
-----------------------------|
-----------------------------|


   E   Q     E   E   E   E   E
--------------------------------|
--------------------------------|
------17-----L------------------|
---L--------17--16--17--17--17--|
--------------------------------|
--------------------------------|


   Q     E   Q     E   Q
-----------------------------|
------------14---------------|
--------17--------17---------|
--16------------------16b----|
-----------------------------|
-----------------------------|


   E   Q     E   E   E   E   E
--------------------------------|
------------------------17------|
------17-----L------------------|
---L--------17--16--17------17--|
--------------------------------|
--------------------------------|


   Q     E   Q     E   Q
-----------------------------|
------------14---------------|
--------17--------17---------|
--16------------------16b----|
-----------------------------|
-----------------------------|


   E   Q     E   E   E   E   E
--------------------------------|
--------------------------------|
------17-----L------------------|
---L--------17--16--17--17--17--|
--------------------------------|
--------------------------------|


   Q     E   Q     E   Q
-----------------------------|
------------14---------------|
--------17--------17---------|
--16------------------16b----|
-----------------------------|
-----------------------------|


   E   Q     E   E   E   E   E
--------------------------------|
------------------------17------|
------17-----L------------------|
---L--------17--16--17------17--|
--------------------------------|
--------------------------------|


   Q     E   Q     E   Q
-----------------------------|
------------14---------------|
--------17--------17---------|
--16------------------16b----|
-----------------------------|
-----------------------------|


   E   Q     E   E   E   E   E
--------------------------------|
--------------------------------|
------17-----L------------------|
---L--------17--16--17--17--17--|
--------------------------------|
--------------------------------|


   Q     E   Q     E   Q
-----------------------------|
------------14---------------|
--------17--------17---------|
--16------------------16b----|
-----------------------------|
-----------------------------|


   E   Q     E   E   E   E   E
--------------------------------|
------------------------17------|
------17-----L------------------|
---L--------17--16--17------17--|
--------------------------------|
--------------------------------|


   Q     E   Q     E   Q
-----------------------------|
------------14---------------|
--------17--------17---------|
--16------------------16b----|
-----------------------------|
-----------------------------|


   E   Q     E   E   E   E   E
--------------------------------|
--------------------------------|
------17-----L------------------|
---L--------17--16--17--17--17--|
--------------------------------|
--------------------------------|


  S S S S S S S S S S S S S S
Добавлено: 13.03.2012
Другие материалы по этой песне:

Страница создана 13.03.2012
http://primanota.ru/amoral/decrowning-chords.htm
Привет, Гость.
Предлагаем пройти революционный курс по гитаре.
Подарок от PrimaNota.Ru, забирай!