PrimaNota.ru - самый крупный в мире бесплатный архив песенных текстов, аккордов, табулатур и нот


Amoral - Atrocity Evolution - таба, видео

Регистрация Запомнить меня
Войти через:  Facebook Google Twitter Vk Yandex Mail.ru

Amoral - Atrocity Evolution - таба, видео

Печатать
Просмотров: 167
            Atrocity Evolution


                                       Amoral
Guitar (6-string)



     PM PM PM PM         PM PM PM PM     PM P
     S  S  S  S  S S S S S  S  S  S  S S S  S
E||-------------------------------------------|
B||-------------------------------------------|
G||-------------------------------------------|
D||-------------------------------------------|
A||--------------7-8-7---------------5-3------|
E||--0--0--0--0--------9-0--0--0--0------4--3-|


  PM PM PM PM         PM PM
  S  S  S  S  S S S S S  S  Q    E
------------------------------------|
------------------------------------|
------------------------------------|
----------------------------7----8--|
--------------7-8-7---------5----6--|
--0--0--0--0--------9-0--0--5----6--|


  PM PM PM PM         PM PM PM PM     PM PM
  S  S  S  S  S S S S S  S  S  S  S S S  S
--------------------------------------------|
--------------------------------------------|
--------------------------------------------|
--------------------------------------------|
--------------7-8-7---------------5-3-------|
--0--0--0--0--------9-0--0--0--0------4--3--|


  PM PM
  S  S  E.  E.  Q    E  E
---------------------------|
---------------------------|
---------------------------|
--------6---5---8----8--8--|
--------6---5---8----8--8--|
--0--0--4---3---6----6--6--|


  PM PM PM PM         PM PM PM PM     PM PM
  S  S  S  S  S S S S S  S  S  S  S S S  S
--------------------------------------------|
--------------------------------------------|
--------------------------------------------|
--------------------------------------------|
--------------7-8-7---------------5-3-------|
--0--0--0--0--------9-0--0--0--0------4--3--|


  PM PM PM PM         PM PM
  S  S  S  S  S S S S S  S  Q    E
------------------------------------|
------------------------------------|
------------------------------------|
----------------------------7----8--|
--------------7-8-7---------5----6--|
--0--0--0--0--------9-0--0--5----6--|


  PM PM PM PM         PM PM PM PM     PM PM
  S  S  S  S  S S S S S  S  S  S  S S S  S
--------------------------------------------|
--------------------------------------------|
--------------------------------------------|
--------------------------------------------|
--------------7-8-7---------------5-3-------|
--0--0--0--0--------9-0--0--0--0------4--3--|


  PM PM
  S  S  E.  E.  Q    E  E
---------------------------|
---------------------------|
---------------------------|
--------6---5---8----8--8--|
--------6---5---8----8--8--|
--0--0--4---3---6----6--6--|


  PM PM PM PM         PM PM PM PM     PM PM
  S  S  S  S  S S S S S  S  S  S  S S S  S
--------------------------------------------|
--------------------------------------------|
--------------------------------------------|
--------------------------------------------|
--------------7-8-7---------------5-3-------|
--0--0--0--0--------9-0--0--0--0------4--3--|


  PM PM PM PM         PM PM
  S  S  S  S  S S S S S  S  Q    E
------------------------------------|
------------------------------------|
------------------------------------|
----------------------------7----8--|
--------------7-8-7---------5----6--|
--0--0--0--0--------9-0--0--5----6--|


  PM PM PM PM         PM PM PM PM     PM PM
  S  S  S  S  S S S S S  S  S  S  S S S  S
--------------------------------------------|
--------------------------------------------|
--------------------------------------------|
--------------------------------------------|
--------------7-8-7---------------5-3-------|
--0--0--0--0--------9-0--0--0--0------4--3--|


  PM PM
  S  S  E.  E.  Q    E  E
---------------------------|
---------------------------|
---------------------------|
--------6---5---8----8--8--|
--------6---5---8----8--8--|
--0--0--4---3---6----6--6--|


  PM PM PM PM         PM PM PM PM     PM PM
  S  S  S  S  S S S S S  S  S  S  S S S  S
--------------------------------------------|
--------------------------------------------|
--------------------------------------------|
--------------------------------------------|
--------------7-8-7---------------5-3-------|
--0--0--0--0--------9-0--0--0--0------4--3--|


  PM PM PM PM         PM PM
  S  S  S  S  S S S S S  S  Q    E
------------------------------------|
------------------------------------|
------------------------------------|
----------------------------7----8--|
--------------7-8-7---------5----6--|
--0--0--0--0--------9-0--0--5----6--|


  PM PM PM PM         PM PM PM PM     PM PM
  S  S  S  S  S S S S S  S  S  S  S S S  S
--------------------------------------------|
--------------------------------------------|
--------------------------------------------|
--------------------------------------------|
--------------7-8-7---------------5-3-------|
--0--0--0--0--------9-0--0--0--0------4--3--|


  PM PM
  S  S  E.  E.  Q    E  E
---------------------------|
---------------------------|
---------------------------|
--------6---5---8----8--8--|
--------6---5---8----8--8--|
--0--0--4---3---6----6--6--|


  PM PM          PM PM     PM PM
  S  S  S E.  E  S  S  S S S  S  S S
-------------------------------------|
-------------------------------------|
-------------------------------------|
-------------------------------------|
----------5---4----------------------|
--2--2-----------2--2------2--2----3-|


        PM PM
  E  E  S  S  S S E.  E.  E
-----------------------------|
-----------------------------|
-----------------------------|
--------------------------1--|
------------------4---2---1--|
--L--2--2--2------2---0------|


  PM PM          PM PM     PM PM
  S  S  S E.  E  S  S  S S S  S  S  S
--------------------------------------|
--------------------------------------|
--------------------------------------|
--------------------------------------|
----------5---4--------------------/5-|
--2--2-----------2--2------2--2----/5-|


        PM PM   PM
  E  E  S  S  S S    H
-------------------------------|
-------------------------------|
-------------------------------|
-------------------------------|
--L--7-------------------------|
--L--7--2--2----2--<>3~--------|


  PM PM          PM PM     PM PM
  S  S  S E.  E  S  S  S S S  S  S S
-------------------------------------|
-------------------------------------|
-------------------------------------|
-------------------------------------|
----------5---4----------------------|
--2--2-----------2--2------2--2----3-|


        PM PM
  E  E  S  S  S S E.  E.  E
-----------------------------|
-----------------------------|
-----------------------------|
--------------------------1--|
------------------4---2---1--|
--L--2--2--2------2---0------|


  PM PM
                 |--3--|  |--3--|
  S  S  S E.  E  E  E  E  E  E  E
-----------------------------------|
-----------------------------------|
-----------------------------------|
-----------------------------------|
----------5---4--------------------|
--2--2-----------5--5--5--7--7--7--|


  Q     E  E  E.  E.  E
-------------------------|
-------------------------|
-------------------------|
-------------------------|
------------------5------|
--0----/7--0--5-------2--|


  PM PM          PM PM     PM PM
  S  S  S E.  E  S  S  S S S  S  S S
-------------------------------------|
-------------------------------------|
-------------------------------------|
-------------------------------------|
----------5---4----------------------|
--2--2-----------2--2------2--2----3-|


        PM PM
  E  E  S  S  S S E.  E.  E
-----------------------------|
-----------------------------|
-----------------------------|
--------------------------1--|
------------------4---2---1--|
--L--2--2--2------2---0------|


  PM PM          PM PM     PM PM
  S  S  S E.  E  S  S  S S S  S  S  S
--------------------------------------|
--------------------------------------|
--------------------------------------|
--------------------------------------|
----------5---4--------------------/5-|
--2--2-----------2--2------2--2----/5-|


        PM PM   PM
  E  E  S  S  S S    H
-------------------------------|
-------------------------------|
-------------------------------|
-------------------<>6~--------|
--L--7-------------------------|
--L--7--2--2----2--------------|


  PM PM          PM PM     PM PM
  S  S  S E.  E  S  S  S S S  S  S S
-------------------------------------|
-------------------------------------|
-------------------------------------|
-------------------------------------|
----------5---4----------------------|
--2--2-----------2--2------2--2----3-|


        PM PM
  E  E  S  S  S S E.  E.  E
-----------------------------|
-----------------------------|
-----------------------------|
--------------------------1--|
------------------4---2---1--|
--L--2--2--2------2---0------|


  PM PM
                 |--3--|  |--3--|
  S  S  S E.  E  E  E  E  E  E  E
-----------------------------------|
-----------------------------------|
-----------------------------------|
-----------------------------------|
----------5---4--------------------|
--2--2-----------5--5--5--7--7--7--|


  Q     E  E  E.  E.  E
-------------------------|
-------------------------|
-------------------------|
-------------------------|
------------------5------|
--0----/7--0--5-------2--|


             PM PM            PM PM
  S  S  S  S S  S  S  S  S  S S  S  S  S  S
---------------------------------------------|
---------------------------------------------|
---------------------------------------------|
---------------------------------------------|
--2h-5p-2h-5-------2h-3p-2h-3-------2h-5p-2h-|
-------------2--2-------------2--2-----------|


    SHPM PM PM PM PM   PM PM PM PM PM
    S S  S  S  S  S  S S  S  S  S  S  Q
-------------------------------------------|
-------------------------------------------|
-------------------------------------------|
--------------------------------------5----|
--<>2---------------------------------3----|
------2--2--2--2--2----2--2--2--2--2--3----|


             PM PM            PM PM
  S  S  S  S S  S  S  S  S  S S  S  S  S  S
---------------------------------------------|
---------------------------------------------|
---------------------------------------------|
---------------------------------------------|
--2h-5p-2h-5-------2h-3p-2h-3-------2h-5p-2h-|
-------------2--2-------------2--2-----------|


    SHPM PM PM PM PM PM PM
    S S  S  S  S  S  S  S  Q    Q
-------------------------------------|
-------------------------------------|
-------------------------------------|
---------------------------5----8----|
--<>2----------------------3----6----|
------2--2--2--2--2--2--2--3----6----|


             PM PM            PM PM
  S  S  S  S S  S  S  S  S  S S  S  S  S  S
---------------------------------------------|
---------------------------------------------|
---------------------------------------------|
---------------------------------------------|
--2h-5p-2h-5-------2h-3p-2h-3-------2h-5p-2h-|
-------------2--2-------------2--2-----------|


    SHPM PM PM PM PM   PM PM PM PM PM
    S S  S  S  S  S  S S  S  S  S  S  Q
-------------------------------------------|
-------------------------------------------|
-------------------------------------------|
--------------------------------------5----|
--<>2---------------------------------3----|
------2--2--2--2--2----2--2--2--2--2--3----|


             PM PM            PM PM
  S  S  S  S S  S  S  S  S  S S  S  S  S  S
---------------------------------------------|
---------------------------------------------|
---------------------------------------------|
---------------------------------------------|
--2h-5p-2h-5-------2h-3p-2h-3-------2h-5p-2h-|
-------------2--2-------------2--2-----------|


    SHPM PM PM PM PM PM PM
    S S  S  S  S  S  S  S  Q    Q
-------------------------------------|
-------------------------------------|
-------------------------------------|
---------------------------5----8----|
--<>2----------------------3----6----|
------2--2--2--2--2--2--2--3----6----|


             PM PM            PM PM
  S  S  S  S S  S  S  S  S  S S  S  S  S  S
---------------------------------------------|
---------------------------------------------|
---------------------------------------------|
---------------------------------------------|
--2h-5p-2h-5-------2h-3p-2h-3-------2h-5p-2h-|
-------------2--2-------------2--2-----------|


    SHPM PM PM PM PM   PM PM PM PM PM
    S S  S  S  S  S  S S  S  S  S  S  Q
-------------------------------------------|
-------------------------------------------|
-------------------------------------------|
--------------------------------------5----|
--<>2---------------------------------3----|
------2--2--2--2--2----2--2--2--2--2--3----|


             PM PM            PM PM
  S  S  S  S S  S  S  S  S  S S  S  S  S  S
---------------------------------------------|
---------------------------------------------|
---------------------------------------------|
---------------------------------------------|
--2h-5p-2h-5-------2h-3p-2h-3-------2h-5p-2h-|
-------------2--2-------------2--2-----------|


    SHPM PM PM PM PM PM PM
    S S  S  S  S  S  S  S  Q    Q
-------------------------------------|
-------------------------------------|
-------------------------------------|
---------------------------5----8----|
--<>2----------------------3----6----|
------2--2--2--2--2--2--2--3----6----|


             PM PM            PM PM
  S  S  S  S S  S  S  S  S  S S  S  S  S  S
---------------------------------------------|
---------------------------------------------|
---------------------------------------------|
---------------------------------------------|
--2h-5p-2h-5-------2h-3p-2h-3-------2h-5p-2h-|
-------------2--2-------------2--2-----------|


    SHPM PM PM PM PM   PM PM PM PM PM
    S S  S  S  S  S  S S  S  S  S  S  Q
-------------------------------------------|
-------------------------------------------|
-------------------------------------------|
--------------------------------------5----|
--<>2---------------------------------3----|
------2--2--2--2--2----2--2--2--2--2--3----|


             PM PM            PM PM
  S  S  S  S S  S  S  S  S  S S  S  S  S  S
---------------------------------------------|
---------------------------------------------|
---------------------------------------------|
---------------------------------------------|
--2h-5p-2h-5-------2h-3p-2h-3-------2h-5p-2h-|
-------------2--2-------------2--2-----------|


    SHPM PM PM PM PM PM PM
    S S  S  S  S  S  S  S  Q    Q
-------------------------------------|
-------------------------------------|
-------------------------------------|
---------------------------5----8----|
--<>2----------------------3----6----|
------2--2--2--2--2--2--2--3----6----|


             PM PM            PM PM
  S  S  S  S S  S  S  S  S  S S  S  S  S  S
---------------------------------------------|
---------------------------------------------|
---------------------------------------------|
---------------------------------------------|
--2h-5p-2h-5-------2h-3p-2h-3-------2h-5p-2h-|
-------------2--2-------------2--2-----------|


    SHPM PM PM PM PM   PM PM PM PM PM
    S S  S  S  S  S  S S  S  S  S  S  Q
-------------------------------------------|
-------------------------------------------|
-------------------------------------------|
--------------------------------------5----|
--<>2---------------------------------3----|
------2--2--2--2--2----2--2--2--2--2--3----|


             PM PM            PM PM
  S  S  S  S S  S  S  S  S  S S  S  S  S  S
---------------------------------------------|
---------------------------------------------|
---------------------------------------------|
---------------------------------------------|
--2h-5p-2h-5-------2h-3p-2h-3-------2h-5p-2h-|
-------------2--2-------------2--2-----------|


    SHPM PM PM PM PM PM PM
    S S  S  S  S  S  S  S  Q    Q
-------------------------------------|
-------------------------------------|
-------------------------------------|
---------------------------5----8----|
--<>2----------------------3----6----|
------2--2--2--2--2--2--2--3----6----|


             PM PM            PM PM
  S  S  S  S S  S  S  S  S  S S  S  S  S  S
---------------------------------------------|
---------------------------------------------|
---------------------------------------------|
---------------------------------------------|
--2h-5p-2h-5-------2h-3p-2h-3-------2h-5p-2h-|
-------------2--2-------------2--2-----------|


    SHPM PM PM PM PM   PM PM PM PM PM
    S S  S  S  S  S  S S  S  S  S  S  Q
-------------------------------------------|
-------------------------------------------|
-------------------------------------------|
--------------------------------------5----|
--<>2---------------------------------3----|
------2--2--2--2--2----2--2--2--2--2--3----|


             PM PM            PM PM
  S  S  S  S S  S  S  S  S  S S  S  S  S  S
---------------------------------------------|
---------------------------------------------|
---------------------------------------------|
---------------------------------------------|
--2h-5p-2h-5-------2h-3p-2h-3-------2h-5p-2h-|
-------------2--2-------------2--2-----------|


    SHPM PM PM PM PM PM PM
    S S  S  S  S  S  S  S  Q    Q
-------------------------------------|
-------------------------------------|
-------------------------------------|
---------------------------5----8----|
--<>2----------------------3----6----|
------2--2--2--2--2--2--2--3----6----|


   PM            PM   PM PM   PM PM
   E   E  Q.     S  S S  S  S S  S  E.
----------------------------------------|
----------------------------------------|
----------------------------------------|
----------5-----------------------------|
----------5------2----2--2----2--2------|
--(0)-----3------0----0--0----0--0------|


  Q.     S S S S S S S S S S
-----------------------------|
-----------------------------|
--9--------------------------|
---------------6-7-9-7-6---7-|
--7------5-6-7-----------7---|
-----------------------------|


               PM   PM PM   PM PM
   S  S S E.   S  S S  S  S S  S  E.
--------------------------------------|
--------------------------------------|
--------------------------------------|
--(6)-6-------------------------------|
--------6-7S---2----2--2----2--2------|
---------------0----0--0----0--0------|


  Q.     S S S S S S S S S S
-----------------------------|
-----------------------------|
--9--------------------------|
---------------6-7-9-7-6-----|
--7------5-6-7-----------7-6-|
-----------------------------|


                     PM PM PM PM
                     |--3--|
  S S S S  Q    Q    S  S  S  S  S
-----------------------------------|
-----------------------------------|
-----------------------------------|
-----------------------------------|
--5------------------7--7--7--7----|
----8-7-5s-1----4----0--0--0--0----|


  PM PM PM PM          PM   PM PM   PM PM
  |--3--|
  S  S  S  S  S Q.     S  S S  S  S S  S  E.
---------------------------------------------|
---------------------------------------------|
---------------------------------------------|
----------------5----------------------------|
--7--7--7--7----5------2----2--2----2--2-----|
--0--0--0--0----3------0----0--0----0--0-----|


  Q.     S S S S S S S S S S
-----------------------------|
-----------------------------|
--9--------------------------|
---------------6-7-9-7-6---7-|
--7------5-6-7-----------7---|
-----------------------------|


             PM   PM PM   PM PM
  S S S E.   S  S S  S  S S  S  E.
------------------------------------|
------------------------------------|
------------------------------------|
--6-6-------------------------------|
------6-7S---2----2--2----2--2------|
-------------0----0--0----0--0------|


    Q.     S S S S S S S S S S
-------------------------------|
-------------------------------|
--xg9--------------------------|
-----------------6-7-9-7-6-----|
--xg7------5-6-7-----------7-6-|
-------------------------------|


                     PM PM
  S S S S  Q    Q    S  E  S
-----------------------------|
-----------------------------|
-----------------------------|
-----------------------------|
--5------------------2--2----|
----8-7-5s-1----4----0--0----|


  PM PM
  S  E  E  E.
---------------|
---------------|
---------------|
---------------|
--2--2---------|
--0--0---------|


             PM PM            PM PM
  S  S  S  S S  S  S  S  S  S S  S  S  S  S
---------------------------------------------|
---------------------------------------------|
---------------------------------------------|
---------------------------------------------|
--2h-5p-2h-5-------2h-3p-2h-3-------2h-5p-2h-|
-------------2--2-------------2--2-----------|


    SHPM PM PM PM PM   PM PM PM PM PM
    S S  S  S  S  S  S S  S  S  S  S  Q
-------------------------------------------|
-------------------------------------------|
-------------------------------------------|
--------------------------------------5----|
--<>2---------------------------------3----|
------2--2--2--2--2----2--2--2--2--2--3----|


             PM PM            PM PM
  S  S  S  S S  S  S  S  S  S S  S  S  S  S
---------------------------------------------|
---------------------------------------------|
---------------------------------------------|
---------------------------------------------|
--2h-5p-2h-5-------2h-3p-2h-3-------2h-5p-2h-|
-------------2--2-------------2--2-----------|


    SHPM PM PM PM PM PM PM
    S S  S  S  S  S  S  S  Q    Q
-------------------------------------|
-------------------------------------|
-------------------------------------|
---------------------------5----8----|
--<>2----------------------3----6----|
------2--2--2--2--2--2--2--3----6----|


             PM PM            PM PM
  S  S  S  S S  S  S  S  S  S S  S  S  S  S
---------------------------------------------|
---------------------------------------------|
---------------------------------------------|
---------------------------------------------|
--2h-5p-2h-5-------2h-3p-2h-3-------2h-5p-2h-|
-------------2--2-------------2--2-----------|


    SHPM PM PM PM PM   PM PM PM PM PM
    S S  S  S  S  S  S S  S  S  S  S  Q
-------------------------------------------|
-------------------------------------------|
-------------------------------------------|
--------------------------------------5----|
--<>2---------------------------------3----|
------2--2--2--2--2----2--2--2--2--2--3----|


             PM PM            PM PM
  S  S  S  S S  S  S  S  S  S S  S  S  S  S
---------------------------------------------|
---------------------------------------------|
---------------------------------------------|
---------------------------------------------|
--2h-5p-2h-5-------2h-3p-2h-3-------2h-5p-2h-|
-------------2--2-------------2--2-----------|


    SHPM PM PM PM PM PM PM
    S S  S  S  S  S  S  S  Q    Q
-------------------------------------|
-------------------------------------|
-------------------------------------|
---------------------------5----8----|
--<>2----------------------3----6----|
------2--2--2--2--2--2--2--3----6----|


             PM PM            PM PM
  S  S  S  S S  S  S  S  S  S S  S  S  S  S
---------------------------------------------|
---------------------------------------------|
---------------------------------------------|
---------------------------------------------|
--2h-5p-2h-5-------2h-3p-2h-3-------2h-5p-2h-|
-------------2--2-------------2--2-----------|


    SHPM PM PM PM PM   PM PM PM PM PM
    S S  S  S  S  S  S S  S  S  S  S  Q
-------------------------------------------|
-------------------------------------------|
-------------------------------------------|
--------------------------------------5----|
--<>2---------------------------------3----|
------2--2--2--2--2----2--2--2--2--2--3----|


             PM PM            PM PM
  S  S  S  S S  S  S  S  S  S S  S  S  S  S
---------------------------------------------|
---------------------------------------------|
---------------------------------------------|
---------------------------------------------|
--2h-5p-2h-5-------2h-3p-2h-3-------2h-5p-2h-|
-------------2--2-------------2--2-----------|


    SHPM PM PM PM PM PM PM
    S S  S  S  S  S  S  S  Q    Q
-------------------------------------|
-------------------------------------|
-------------------------------------|
---------------------------5----8----|
--<>2----------------------3----6----|
------2--2--2--2--2--2--2--3----6----|


             PM PM            PM PM
  S  S  S  S S  S  S  S  S  S S  S  S  S  S
---------------------------------------------|
---------------------------------------------|
---------------------------------------------|
---------------------------------------------|
--2h-5p-2h-5-------2h-3p-2h-3-------2h-5p-2h-|
-------------2--2-------------2--2-----------|


    SHPM PM PM PM PM   PM PM PM PM PM
    S S  S  S  S  S  S S  S  S  S  S  Q
-------------------------------------------|
-------------------------------------------|
-------------------------------------------|
--------------------------------------5----|
--<>2---------------------------------3----|
------2--2--2--2--2----2--2--2--2--2--3----|


             PM PM            PM PM
  S  S  S  S S  S  S  S  S  S S  S  S  S  S
---------------------------------------------|
---------------------------------------------|
---------------------------------------------|
---------------------------------------------|
--2h-5p-2h-5-------2h-3p-2h-3-------2h-5p-2h-|
-------------2--2-------------2--2-----------|


    SHPM PM PM PM PM PM PM
    S S  S  S  S  S  S  S  Q    Q
-------------------------------------|
-------------------------------------|
-------------------------------------|
---------------------------5----8----|
--<>2----------------------3----6----|
------2--2--2--2--2--2--2--3----6----|


       PM PM
  Q    E  E  E  E  Q
------------------------|
------------------------|
-------------------3----|
------------------------|
--2----------2----------|
--2----2--3--2----------|


                  PM PM
  E  E  Q    Q    E  E
------------------------|
------------------------|
------------------------|
--1--2------------------|
--------1----2----------|
------------------1--4--|


  PM PM
  E  E  S  S  S  S E  E  E  E
-------------------------------|
-------------------------------|
-------------------------------|
-------------------------1--0--|
--3--2--1h-2p-1h-2----2--------|
-------------------4-----------|


  E  E  Q    Q      Q
-------------------------|
--------3----2br---------|
--------------------2----|
--1--5-------------------|
-------------------------|
-------------------------|


          PM PM
  Q.      E  E  Q.
-----------------------|
-----------------------|
-----------------------|
--5~-------------------|
----------------3------|
----------3--3--3------|


       PM PM
  Q    E  E  E  E  Q
------------------------|
------------------------|
-------------------3----|
------------------------|
--2----------2----------|
--2----2--3--2----------|


                  PM PM
  E  E  Q    Q    E  E
------------------------|
------------------------|
------------------------|
--1--2------------------|
--------1----2----------|
------------------1--4--|


  PM PM
  E  E  S  S  S  S E  E  E  E
-------------------------------|
-------------------------------|
-------------------------------|
-------------------------1--0--|
--3--2--1h-2p-1h-2----2--------|
-------------------4-----------|


  E  E  Q    Q      Q    Q
-------------------------------|
--------3----2br---------------|
--------------------2----------|
--1--5-------------------5\----|
-------------------------------|
-------------------------------|


       PM PM
  Q    E  E  E  E  Q
------------------------|
------------------------|
-------------------3----|
------------------------|
--2----------2----------|
--2----2--3--2----------|


                  PM PM
  E  E  Q    Q    E  E
------------------------|
------------------------|
------------------------|
--1--2------------------|
--------1----2----------|
------------------1--4--|


  PM PM
  E  E  S  S  S  S E  E  E  E
-------------------------------|
-------------------------------|
-------------------------------|
-------------------------1--0--|
--3--2--1h-2p-1h-2----2--------|
-------------------4-----------|


  E  E  Q    Q      Q
-------------------------|
--------3----2br---------|
--------------------2----|
--1--5-------------------|
-------------------------|
-------------------------|


    SH
    W.
---------------------|
---------------------|
---------------------|
--<>5----------------|
---------------------|
---------------------|


  PM PM PM PM PM PM PM PM PM PM PM PM PM PM P
  S  S  S  S  S  S  S  S  S  S  S  S  S  S  S
----------------------------------------------|
----------------------------------------------|
----------------------------------------------|
----------------------------------------------|
----------------------------------------------|
--4--1--0--1--0--1--4--1--0--1--0--1--4--1--0-|


  PM PM PM PM PM PM PM PM PM PM PM PM PM PM P
  S  S  S  S  S  S  S  S  S  S  S  S  S  S  S
----------------------------------------------|
----------------------------------------------|
----------------------------------------------|
----------------------------------------------|
----------------------------------------------|
--2--1--0--1--0--1--4--1--0--1--0--1--4--4--4-|


  PM PM PM PM PM PM PM PM PM PM PM PM PM PM P
  S  S  S  S  S  S  S  S  S  S  S  S  S  S  S
----------------------------------------------|
----------------------------------------------|
----------------------------------------------|
----------------------------------------------|
----------------------------------------------|
--4--1--0--1--0--1--4--1--0--1--0--1--4--1--0-|


  PM PM PM PM PM PM PM PM PM PM PM PM
  S  S  S  S  S  S  S  S  S  S  S  S  S  E.
---------------------------------------------|
---------------------------------------------|
---------------------------------------------|
---------------------------------------------|
--------------------------------------5S-6---|
--2--1--0--1--0--1--4--1--0--1--0--1--3S-4---|


  PM PM PM PM PM PM PM PM PM PM PM PM PM PM P
  S  S  S  S  S  S  S  S  S  S  S  S  S  S  S
----------------------------------------------|
----------------------------------------------|
----------------------------------------------|
----------------------------------------------|
----------------------------------------------|
--4--1--0--1--0--1--4--1--0--1--0--1--4--1--0-|


  PM PM PM PM PM PM PM PM PM PM PM PM PM PM P
  S  S  S  S  S  S  S  S  S  S  S  S  S  S  S
----------------------------------------------|
----------------------------------------------|
----------------------------------------------|
----------------------------------------------|
----------------------------------------------|
--2--1--0--1--0--1--4--1--0--1--0--1--4--4--4-|


  PM PM PM PM PM PM PM PM PM PM PM PM PM PM P
  S  S  S  S  S  S  S  S  S  S  S  S  S  S  S
----------------------------------------------|
----------------------------------------------|
----------------------------------------------|
----------------------------------------------|
----------------------------------------------|
--4--1--0--1--0--1--4--1--0--1--0--1--4--1--0-|


  PM PM PM PM PM PM PM PM PM PM PM PM
  S  S  S  S  S  S  S  S  S  S  S  S  S  E.
---------------------------------------------|
---------------------------------------------|
---------------------------------------------|
---------------------------------------------|
--------------------------------------5S-6---|
--2--1--0--1--0--1--4--1--0--1--0--1--3S-4---|


       PM PM
  Q    E  E  E  E  Q
------------------------|
------------------------|
-------------------3----|
------------------------|
--2----------2----------|
--2----2--3--2----------|


                  PM PM
  E  E  Q    Q    E  E
------------------------|
------------------------|
------------------------|
--1--2------------------|
--------1----2----------|
------------------1--4--|


  PM PM
  E  E  S  S  S  S E  E  E  E
-------------------------------|
-------------------------------|
-------------------------------|
-------------------------1--0--|
--3--2--1h-2p-1h-2----2--------|
-------------------4-----------|


  E  E  Q    Q      Q
-------------------------|
--------3----2br---------|
--------------------2----|
--1--5-------------------|
-------------------------|
-------------------------|


          \1/
  E  E    H.
-----------------------|
-----------------------|
--------<>5------------|
--5--0-----------------|
-----------------------|
-----------------------|


       PM PM
  Q    E  E  E  E  Q
------------------------|
------------------------|
-------------------3----|
------------------------|
--2----------2----------|
--2----2--3--2----------|


                  PM PM
  E  E  Q    Q    E  E
------------------------|
------------------------|
------------------------|
--1--2------------------|
--------1----2----------|
------------------1--4--|


  PM PM
  E  E  S  S  S  S E  E  E  E
-------------------------------|
-------------------------------|
-------------------------------|
-------------------------1--0--|
--3--2--1h-2p-1h-2----2--------|
-------------------4-----------|


  E  E  Q    Q      Q    Q
-------------------------------|
--------3----2br---------------|
--------------------2----------|
--1--5-------------------5\----|
-------------------------------|
-------------------------------|


       PM PM
  Q    E  E  E  E  Q
------------------------|
------------------------|
-------------------3----|
------------------------|
--2----------2----------|
--2----2--3--2----------|


                  PM PM
  E  E  Q    Q    E  E
------------------------|
------------------------|
------------------------|
--1--2------------------|
--------1----2----------|
------------------1--4--|


  PM PM
  E  E  S  S  S  S E  E  E  E
-------------------------------|
-------------------------------|
-------------------------------|
-------------------------1--0--|
--3--2--1h-2p-1h-2----2--------|
-------------------4-----------|


  E  E  Q    Q      Q
-------------------------|
--------3----2br---------|
--------------------2----|
--1--5-------------------|
-------------------------|
-------------------------|


    SH
    W.
---------------------|
---------------------|
---------------------|
--<>5----------------|
---------------------|
---------------------|


           |-3-| |-3-|          |-3-| |-3-|
  E.    S  S S S S S S E.    S  S S S S S S
--------------------------------------------|
--------------------------------------------|
--------------------------------------------|
--2S---(x)-------------5S---(x)-------------|
--2S---(x)-------------5S---(x)-------------|
-----------0---0-0-0------------0---0-0-0---|


           |-3-| |-3-| |---3---|  |---3---|
  E.    S  S S S S S S E   E   E  E   E   E
---------------------------------------------|
---------------------------------------------|
---------------------------------------------|
--5S---(x)-------------5S--6S--5--2S--3S--2--|
--5S---(x)-------------5S--6S--5--2S--3S--2--|
-----------0---0-0-0-------------------------|


           |-3-| |-3-|          |-3-| |-3-|
  E.    S  S S S S S S E.    S  S S S S S S
--------------------------------------------|
--------------------------------------------|
--------------------------------------------|
--5S---(x)-------------5S---(x)-------------|
--5S---(x)-------------5S---(x)-------------|
-----------0---0-0-0------------0---0-0-0---|


                       PM PM PM
           |-3-| |-3-| |--3--|   |---3---|
  E.    S  S S S S S S E  E  E   E   E   E
---------------------------------------------|
---------------------------------------------|
---------------------------------------------|
--5S---(x)----------------5------8-------7---|
--5S---(x)-------------7-----7--(7)--7--(7)--|
-----------0---0-0-0-------------------------|


           |-3-| |-3-|          |-3-| |-3-|
  E.    S  S S S S S S E.    S  S S S S S S
--------------------------------------------|
--------------------------------------------|
--------------------------------------------|
-----------------------5S---(x)-------------|
--5S---(x)-------------5S---(x)-------------|
--5S---(x)-0---0-0-0------------0---0-0-0---|


           |-3-| |-3-| |---3---|  |---3---|
  E.    S  S S S S S S E   E   E  E   E   E
---------------------------------------------|
---------------------------------------------|
---------------------------------------------|
--5S---(x)-------------5S--6S--5--2S--3S--2--|
--5S---(x)-------------5S--6S--5--2S--3S--2--|
-----------0---0-0-0-------------------------|


           |-3-| |-3-|          |-3-| |-3-|
  E.    S  S S S S S S E.    S  S S S S S S
--------------------------------------------|
--------------------------------------------|
--------------------------------------------|
--5S---(x)-------------5S---(x)-------------|
--5S---(x)-------------5S---(x)-------------|
-----------0---0-0-0------------0---0-0-0---|


                       PM PM PM PM PM PM
           |-3-| |-3-| |--3--|  |--3--|
  E.    S  S S S S S S E  E  E  E  E  E
-----------------------------------------|
-----------------------------------------|
-----------------------------------------|
--5S---(x)----------------5-----8-----7--|
--5S---(x)-------------7-----7-----7-----|
-----------0---0-0-0---------------------|


           |-3-| |-3-|          |-3-| |-3-|
  E.    S  S S S S S S E.    S  S S S S S S
--------------------------------------------|
--------------------------------------------|
--------------------------------------------|
--5S---(x)-------------5S---(x)-------------|
--------------------------------------------|
-----------0---0-0-0------------0---0-0-0---|


           |-3-| |-3-| |---3---|  |---3---|
  E.    S  S S S S S S E   E   E  E   E   E
---------------------------------------------|
---------------------------------------------|
---------------------------------------------|
--5S---(x)-------------5h--6p--5--2h--3p--2--|
---------------------------------------------|
-----------0---0-0-0-------------------------|


           |-3-| |-3-|          |-3-| |-3-|
  E.    S  S S S S S S E.    S  S S S S S S
--------------------------------------------|
--------------------------------------------|
--------------------------------------------|
--5S---(x)-------------5S---(x)-------------|
--------------------------------------------|
-----------0---0-0-0------------0---0-0-0---|


           |-3-| |-3-| |---3---|  |---3---|
  E.    S  S S S S S S E   E   E  E   E   E
---------------------------------------------|
---------------------------------------------|
---------------------------------------------|
--5S---(x)-------------5h--6p--5--2h--3p--2--|
---------------------------------------------|
-----------0---0-0-0-------------------------|


           |-3-| |-3-|          |-3-| |-3-|
  E.    S  S S S S S S E.    S  S S S S S S
--------------------------------------------|
--------------------------------------------|
--------------------------------------------|
--5S---(x)-------------5S---(x)-------------|
--------------------------------------------|
-----------0---0-0-0------------0---0-0-0---|


           |-3-| |-3-| |---3---|  |---3---|
  E.    S  S S S S S S E   E   E  E   E   E
---------------------------------------------|
---------------------------------------------|
---------------------------------------------|
--5S---(x)-------------5h--6p--5--2h--3p--2--|
---------------------------------------------|
-----------0---0-0-0-------------------------|


           |-3-| |-3-|          |-3-| |-3-|
  E.    S  S S S S S S E.    S  S S S S S S
--------------------------------------------|
--------------------------------------------|
--------------------------------------------|
--5S---(x)-------------5S---(x)-------------|
--------------------------------------------|
-----------0---0-0-0------------0---0-0-0---|


           |---3---|  |---3---|
  E.    S  E   E   E  E   E   E  Q
--------------------------------------|
--------------------------------------|
--------------------------------------|
--5S---(x)-5h--6p--5--2h--3p--2--2----|
--------------------------------------|
--------------------------------------|


   |---3--|   |--3--|
   E   E  E   E  E  E  H
--------------------------------|
--------------------------------|
-------------12--9--------------|
----------9---------9--7--------|
------10------------------------|
--12----------------------------|


       |---3---|
  Q    E   E   E  H
---------------------------|
---------------------------|
---------------------------|
--L----7h--9p--7--5--------|
---------------------------|
---------------------------|


   |---3--|   |--3--|
   E   E  E   E  E  E  H
--------------------------------|
--------------------------------|
-------------12--9--------------|
----------9---------9--7--------|
------10------------------------|
--12----------------------------|


      PM PM PM PM  PM  PM
      |--3--|  |---3---|
  E.  E  E  E  E   E   E  S Q
---------------------------------|
---------------------------------|
---------9-----7-----------------|
--L--------------------9---------|
------7-----7-----(7)-----7-L----|
---------------------------------|


   |---3--|   |--3--|
   E   E  E   E  E  E  H
--------------------------------|
--------------------------------|
-------------12--9--------------|
----------9---------9--7--------|
------10------------------------|
--12----------------------------|


       |---3---|
  Q    E   E   E  H
---------------------------|
---------------------------|
---------------------------|
--L----7h--9p--7--9--------|
---------------------------|
---------------------------|


   |---3--|   |--3--|
   E   E  E   E  E  E  H
--------------------------------|
--------------------------------|
-------------12--9--------------|
----------9---------9--7--------|
------10------------------------|
--12----------------------------|


      PM PM PM PM  PM  PM
      |--3--|  |---3---|
  E.  E  E  E  E   E   E  S Q
---------------------------------|
---------------------------------|
---------9-----7-----------------|
--L--------------------9---------|
------7-----7-----(7)-----7-L----|
---------------------------------|


   |---3--|   |--3--|
   E   E  E   E  E  E  H
--------------------------------|
--------------------------------|
-------------12--9--------------|
----------9---------9--7--------|
------10------------------------|
--12----------------------------|


       |---3---|
  Q    E   E   E  H
---------------------------|
---------------------------|
---------------------------|
--L----7h--9p--7--5--------|
---------------------------|
---------------------------|


   |---3--|   |--3--|
   E   E  E   E  E  E  H
--------------------------------|
--------------------------------|
-------------12--9--------------|
----------9---------9--7--------|
------10------------------------|
--12----------------------------|


                       PM   PM
       |----3---|  |----3---|
  E.   E    E   E  E   E    E    S  Q
-----------------------------------------|
-----------------------------------------|
-----------------------------------------|
--L----L--(10)--L--L--(9)--(7)--(9)-L----|
-----------------------------------------|
-----------------------------------------|


   |---3--|   |--3--|
   E   E  E   E  E  E  H
--------------------------------|
--------------------------------|
-------------12--9--------------|
----------9---------9--7--------|
------10------------------------|
--12----------------------------|


       |---3---|
  Q    E   E   E  H
---------------------------|
---------------------------|
---------------------------|
--L----7h--9p--7--9--------|
---------------------------|
---------------------------|


   |---3--|   |--3--|
   E   E  E   E  E  E  H
--------------------------------|
--------------------------------|
-------------12--9--------------|
----------9---------9--7--------|
------10------------------------|
--12----------------------------|


                       PM   PM
       |----3---|  |----3---|
  E.   E    E   E  E   E    E    S  Q
-----------------------------------------|
-----------------------------------------|
-----------------------------------------|
--L----L--(10)--L--L--(9)--(7)--(9)-L----|
-----------------------------------------|
-----------------------------------------|


  PM PM          PM PM     PM PM
  S  S  S E.  E  S  S  S S S  S  S S
-------------------------------------|
-------------------------------------|
-------------------------------------|
-------------------------------------|
-------------------------------------|
--2--2-----------2--2------2--2----3-|


        PM PM
  E  E  S  S  S S E.  E.  E
-----------------------------|
-----------------------------|
-----------------------------|
--------------------------1--|
------------------4---2---1--|
--L--2--2--2------2---0------|


  PM PM          PM PM     PM PM
  S  S  S E.  E  S  S  S S S  S  S  S
--------------------------------------|
--------------------------------------|
--------------------------------------|
--------------------------------------|
----------5---4--------------------/5-|
--2--2-----------2--2------2--2----/5-|


        PM PM   PM
  E  E  S  S  S S    H
-------------------------------|
-------------------------------|
-------------------------------|
-------------------------------|
--L--7-------------------------|
--L--7--2--2----2--<>3~--------|


  PM PM          PM PM     PM PM
  S  S  S E.  E  S  S  S S S  S  S S
-------------------------------------|
-------------------------------------|
-------------------------------------|
-------------------------------------|
----------5---4----------------------|
--2--2-----------2--2------2--2----3-|


        PM PM
  E  E  S  S  S S E.  E.  E
-----------------------------|
-----------------------------|
-----------------------------|
--------------------------1--|
------------------4---2---1--|
--L--2--2--2------2---0------|


  PM PM
                 |--3--|  |--3--|
  S  S  S E.  E  E  E  E  E  E  E
-----------------------------------|
-----------------------------------|
-----------------------------------|
-----------------------------------|
----------5---4--------------------|
--2--2-----------5--5--5--7--7--7--|


  Q     E  E  E.  E.  E
-------------------------|
-------------------------|
-------------------------|
-------------------------|
------------------5------|
--0----/7--0--5-------2--|


  PM PM          PM PM     PM PM
  S  S  S E.  E  S  S  S S S  S  S S
-------------------------------------|
-------------------------------------|
-------------------------------------|
-------------------------------------|
----------5---4----------------------|
--2--2-----------2--2------2--2----3-|


        PM PM
  E  E  S  S  S S E.  E.  E
-----------------------------|
-----------------------------|
-----------------------------|
--------------------------1--|
------------------4---2---1--|
--L--2--2--2------2---0------|


  PM PM          PM PM     PM PM
  S  S  S E.  E  S  S  S S S  S  S  S
--------------------------------------|
--------------------------------------|
--------------------------------------|
--------------------------------------|
----------5---4--------------------/5-|
--2--2-----------2--2------2--2----/5-|


        PM PM   PM
  E  E  S  S  S S    H
-------------------------------|
-------------------------------|
-------------------------------|
-------------------<>6~--------|
--L--7-------------------------|
--L--7--2--2----2--------------|


  PM PM          PM PM     PM PM
  S  S  S E.  E  S  S  S S S  S  S S
-------------------------------------|
-------------------------------------|
-------------------------------------|
-------------------------------------|
----------5---4----------------------|
--2--2-----------2--2------2--2----3-|


        PM PM
  E  E  S  S  S S E.  E.  E
-----------------------------|
-----------------------------|
-----------------------------|
--------------------------1--|
------------------4---2---1--|
--L--2--2--2------2---0------|


  PM PM
                 |--3--|  |--3--|
  S  S  S E.  E  E  E  E  E  E  E
-----------------------------------|
-----------------------------------|
-----------------------------------|
-----------------------------------|
----------5---4--------------------|
--2--2-----------5--5--5--7--7--7--|


  Q     E  E  E.  E.  E
-------------------------|
-------------------------|
-------------------------|
-------------------------|
------------------5------|
--0----/7--0--5-------2--|


             PM PM            PM PM
  S  S  S  S S  S  S  S  S  S S  S  S  S  S
---------------------------------------------|
---------------------------------------------|
---------------------------------------------|
---------------------------------------------|
--2h-5p-2h-5-------2h-3p-2h-3-------2h-5p-2h-|
-------------2--2-------------2--2-----------|


    SHPM PM PM PM PM   PM PM PM PM PM
    S S  S  S  S  S  S S  S  S  S  S  Q
-------------------------------------------|
-------------------------------------------|
-------------------------------------------|
--------------------------------------5----|
--<>2---------------------------------3----|
------2--2--2--2--2----2--2--2--2--2--3----|


             PM PM            PM PM
  S  S  S  S S  S  S  S  S  S S  S  S  S  S
---------------------------------------------|
---------------------------------------------|
---------------------------------------------|
---------------------------------------------|
--2h-5p-2h-5-------2h-3p-2h-3-------2h-5p-2h-|
-------------2--2-------------2--2-----------|


    SHPM PM PM PM PM PM PM
    S S  S  S  S  S  S  S  Q    Q
-------------------------------------|
-------------------------------------|
-------------------------------------|
---------------------------5----8----|
--<>2----------------------3----6----|
------2--2--2--2--2--2--2--3----6----|


             PM PM            PM PM
  S  S  S  S S  S  S  S  S  S S  S  S  S  S
---------------------------------------------|
---------------------------------------------|
---------------------------------------------|
---------------------------------------------|
--2h-5p-2h-5-------2h-3p-2h-3-------2h-5p-2h-|
-------------2--2-------------2--2-----------|


    SHPM PM PM PM PM   PM PM PM PM PM
    S S  S  S  S  S  S S  S  S  S  S  Q
-------------------------------------------|
-------------------------------------------|
-------------------------------------------|
--------------------------------------5----|
--<>2---------------------------------3----|
------2--2--2--2--2----2--2--2--2--2--3----|


             PM PM            PM PM
  S  S  S  S S  S  S  S  S  S S  S  S  S  S
---------------------------------------------|
---------------------------------------------|
---------------------------------------------|
---------------------------------------------|
--2h-5p-2h-5-------2h-3p-2h-3-------2h-5p-2h-|
-------------2--2-------------2--2-----------|


    SHPM PM PM PM PM PM PM
    S S  S  S  S  S  S  S  Q    Q
-------------------------------------|
-------------------------------------|
-------------------------------------|
---------------------------5----8----|
--<>2----------------------3----6----|
------2--2--2--2--2--2--2--3----6----|


             PM PM            PM PM
  S  S  S  S S  S  S  S  S  S S  S  S  S  S
---------------------------------------------|
---------------------------------------------|
---------------------------------------------|
---------------------------------------------|
--2h-5p-2h-5-------2h-3p-2h-3-------2h-5p-2h-|
-------------2--2-------------2--2-----------|


    SHPM PM PM PM PM   PM PM PM PM PM
    S S  S  S  S  S  S S  S  S  S  S  Q
-------------------------------------------|
-------------------------------------------|
-------------------------------------------|
--------------------------------------5----|
--<>2---------------------------------3----|
------2--2--2--2--2----2--2--2--2--2--3----|


             PM PM            PM PM
  S  S  S  S S  S  S  S  S  S S  S  S  S  S
---------------------------------------------|
---------------------------------------------|
---------------------------------------------|
---------------------------------------------|
--2h-5p-2h-5-------2h-3p-2h-3-------2h-5p-2h-|
-------------2--2-------------2--2-----------|


    SHPM PM PM PM PM PM PM
    S S  S  S  S  S  S  S  Q    Q
-------------------------------------|
-------------------------------------|
-------------------------------------|
---------------------------5----8----|
--<>2----------------------3----6----|
------2--2--2--2--2--2--2--3----6----|


             PM PM            PM PM
  S  S  S  S S  S  S  S  S  S S  S  S  S  S
---------------------------------------------|
---------------------------------------------|
---------------------------------------------|
---------------------------------------------|
--2h-5p-2h-5-------2h-3p-2h-3-------2h-5p-2h-|
-------------2--2-------------2--2-----------|


    SHPM PM PM PM PM   PM PM PM PM PM
    S S  S  S  S  S  S S  S  S  S  S  Q
-------------------------------------------|
-------------------------------------------|
-------------------------------------------|
--------------------------------------5----|
--<>2---------------------------------3----|
------2--2--2--2--2----2--2--2--2--2--3----|


             PM PM            PM PM
  S  S  S  S S  S  S  S  S  S S  S  S  S  S
---------------------------------------------|
---------------------------------------------|
---------------------------------------------|
---------------------------------------------|
--2h-5p-2h-5-------2h-3p-2h-3-------2h-5p-2h-|
-------------2--2-------------2--2-----------|


    SHPM PM PM PM PM PM PM
    S S  S  S  S  S  S  S  Q    Q
-------------------------------------|
-------------------------------------|
-------------------------------------|
---------------------------5----8----|
--<>2----------------------3----6----|
------2--2--2--2--2--2--2--3----6----|


       PM PM
  Q    E  E  E  E  Q
------------------------|
------------------------|
-------------------3----|
------------------------|
--2----------2----------|
--2----2--3--2----------|


                  PM PM
  E  E  Q    Q    E  E
------------------------|
------------------------|
------------------------|
--1--2------------------|
--------1----2----------|
------------------1--4--|


  PM PM
  E  E  S  S  S  S E  E  E  E
-------------------------------|
-------------------------------|
-------------------------------|
-------------------------1--0--|
--3--2--1h-2p-1h-2----2--------|
-------------------4-----------|


  E  E  Q    Q      Q
-------------------------|
--------3----2br---------|
--------------------2----|
--1--5-------------------|
-------------------------|
-------------------------|


          PM PM
  Q.      E  E  Q.
-----------------------|
-----------------------|
-----------------------|
--5~-------------------|
----------------3------|
----------3--3--3------|


       PM PM
  Q    E  E  E  E  Q
------------------------|
------------------------|
-------------------3----|
------------------------|
--2----------2----------|
--2----2--3--2----------|


                  PM PM
  E  E  Q    Q    E  E
------------------------|
------------------------|
------------------------|
--1--2------------------|
--------1----2----------|
------------------1--4--|


  PM PM
  E  E  S  S  S  S E  E  E  E
-------------------------------|
-------------------------------|
-------------------------------|
-------------------------1--0--|
--3--2--1h-2p-1h-2----2--------|
-------------------4-----------|


  E  E  Q    Q      Q    Q
-------------------------------|
--------3----2br---------------|
--------------------2----------|
--1--5-------------------5\----|
-------------------------------|
-------------------------------|


       PM PM
  Q    E  E  E  E  Q
------------------------|
------------------------|
-------------------3----|
------------------------|
--2----------2----------|
--2----2--3--2----------|


                  PM PM
  E  E  Q    Q    E  E
------------------------|
------------------------|
------------------------|
--1--2------------------|
--------1----2----------|
------------------1--4--|


  PM PM
  E  E  S  S  S  S E  E  E  E
-------------------------------|
-------------------------------|
-------------------------------|
-------------------------1--0--|
--3--2--1h-2p-1h-2----2--------|
-------------------4-----------|


  E  E  Q    Q      Q
-------------------------|
--------3----2br---------|
--------------------2----|
--1--5-------------------|
-------------------------|
-------------------------|


    SH
    W.
---------------------|
---------------------|
---------------------|
--<>5----------------|
---------------------|
---------------------|


  PM PM PM PM PM PM PM PM PM PM PM PM PM PM P
  S  S  S  S  S  S  S  S  S  S  S  S  S  S  S
----------------------------------------------|
----------------------------------------------|
----------------------------------------------|
----------------------------------------------|
----------------------------------------------|
--4--1--0--1--0--1--4--1--0--1--0--1--4--1--0-|


  PM PM PM PM PM PM PM PM PM PM PM PM PM PM P
  S  S  S  S  S  S  S  S  S  S  S  S  S  S  S
----------------------------------------------|
----------------------------------------------|
----------------------------------------------|
----------------------------------------------|
----------------------------------------------|
--2--1--0--1--0--1--4--1--0--1--0--1--4--4--4-|


  PM PM PM PM PM PM PM PM PM PM PM PM PM PM P
  S  S  S  S  S  S  S  S  S  S  S  S  S  S  S
----------------------------------------------|
----------------------------------------------|
----------------------------------------------|
----------------------------------------------|
----------------------------------------------|
--4--1--0--1--0--1--4--1--0--1--0--1--4--1--0-|


  PM PM PM PM PM PM PM PM PM PM PM PM
  S  S  S  S  S  S  S  S  S  S  S  S  S  E.
---------------------------------------------|
---------------------------------------------|
---------------------------------------------|
---------------------------------------------|
--------------------------------------5S-6---|
--2--1--0--1--0--1--4--1--0--1--0--1--3S-4---|


  PM PM PM PM PM PM PM PM PM PM PM PM PM PM P
  S  S  S  S  S  S  S  S  S  S  S  S  S  S  S
----------------------------------------------|
----------------------------------------------|
----------------------------------------------|
----------------------------------------------|
----------------------------------------------|
--4--1--0--1--0--1--4--1--0--1--0--1--4--1--0-|


  PM PM PM PM PM PM PM PM PM PM PM PM PM PM P
  S  S  S  S  S  S  S  S  S  S  S  S  S  S  S
----------------------------------------------|
----------------------------------------------|
----------------------------------------------|
----------------------------------------------|
----------------------------------------------|
--2--1--0--1--0--1--4--1--0--1--0--1--4--4--4-|


  PM PM PM PM PM PM PM PM PM PM PM PM PM PM P
  S  S  S  S  S  S  S  S  S  S  S  S  S  S  S
----------------------------------------------|
----------------------------------------------|
----------------------------------------------|
----------------------------------------------|
----------------------------------------------|
--4--1--0--1--0--1--4--1--0--1--0--1--4--1--0-|


  PM PM PM PM PM PM PM PM PM PM PM PM
  S  S  S  S  S  S  S  S  S  S  S  S  S  E.
---------------------------------------------|
---------------------------------------------|
---------------------------------------------|
---------------------------------------------|
--------------------------------------5S-6---|
--2--1--0--1--0--1--4--1--0--1--0--1--3S-4---|


  PM PM PM PM         PM PM PM PM     PM PM
  S  S  S  S  S S S S S  S  S  S  S S S  S
--------------------------------------------|
--------------------------------------------|
--------------------------------------------|
--------------------------------------------|
--------------7-8-7---------------5-3-------|
--0--0--0--0--------9-0--0--0--0------4--3--|


  PM PM PM PM         PM PM
  S  S  S  S  S S S S S  S  Q    E
------------------------------------|
------------------------------------|
------------------------------------|
----------------------------7----8--|
--------------7-8-7---------5----6--|
--0--0--0--0--------9-0--0--5----6--|


  PM PM PM PM         PM PM PM PM     PM PM
  S  S  S  S  S S S S S  S  S  S  S S S  S
--------------------------------------------|
--------------------------------------------|
--------------------------------------------|
--------------------------------------------|
--------------7-8-7---------------5-3-------|
--0--0--0--0--------9-0--0--0--0------4--3--|


  PM PM
  S  S  E.  E.  Q    E  E
---------------------------|
---------------------------|
---------------------------|
--------6---5---8----8--8--|
--------6---5---8----8--8--|
--0--0--4---3---6----6--6--|


  PM PM PM PM         PM PM PM PM     PM PM
  S  S  S  S  S S S S S  S  S  S  S S S  S
--------------------------------------------|
--------------------------------------------|
--------------------------------------------|
--------------------------------------------|
--------------7-8-7---------------5-3-------|
--0--0--0--0--------9-0--0--0--0------4--3--|


  PM PM PM PM         PM PM
  S  S  S  S  S S S S S  S  Q    E
------------------------------------|
------------------------------------|
------------------------------------|
----------------------------7----8--|
--------------7-8-7---------5----6--|
--0--0--0--0--------9-0--0--5----6--|


  PM PM PM PM         PM PM PM PM     PM PM
  S  S  S  S  S S S S S  S  S  S  S S S  S
--------------------------------------------|
--------------------------------------------|
--------------------------------------------|
--------------------------------------------|
--------------7-8-7---------------5-3-------|
--0--0--0--0--------9-0--0--0--0------4--3--|


  PM PM
  S  S  E.  E.  Q    E  E
---------------------------|
---------------------------|
---------------------------|
--------6---5---8----8--8--|
--------6---5---8----8--8--|
--0--0--4---3---6----6--6--|


  PM PM PM PM         PM PM PM PM     PM PM
  S  S  S  S  S S S S S  S  S  S  S S S  S
--------------------------------------------|
--------------------------------------------|
--------------------------------------------|
--------------------------------------------|
--------------7-8-7---------------5-3-------|
--0--0--0--0--------9-0--0--0--0------4--3--|


  PM PM PM PM         PM PM
  S  S  S  S  S S S S S  S  Q    E
------------------------------------|
------------------------------------|
------------------------------------|
----------------------------7----8--|
--------------7-8-7---------5----6--|
--0--0--0--0--
Добавлено: 01.03.2012
Другие материалы по этой песне:

Страница создана 01.03.2012
http://primanota.ru/amoral/atrocity-evolution-chords.htm
Привет, Гость.
Предлагаем пройти революционный курс по гитаре.
Подарок от PrimaNota.Ru, забирай!