PrimaNota.ru - самый крупный в мире бесплатный архив песенных текстов, аккордов, табулатур и нот


Among The Oak And Ash - Angel Gabriel - аккорды и текст, видео

Регистрация Запомнить меня
Войти через:  Facebook Google Twitter Vk Yandex Mail.ru

Among The Oak And Ash - Angel Gabriel - аккорды и текст, видео

Печатать
Просмотров: 389
Angel Gabriel
Among The Oak And Ash
First tab, apologies for inaccuracies...

Among the Oak and Ash - Angel Gabriel
Capo on 7, standard tuning

Intro: (And plucking pattern)

    Am          G              Am          G
E|--------------------------|--------------------------|
B|--------1-----------0-----|--------1-----------0-----|
G|-----------2-----------0--|-----------2-----------0--|
D|-----2-----------0--------|-----2-----------0--------|
A|--0-----------------------|--0-----------------------|
E|--------------3-----------|--------------3-----------|
                                                 Oh my soul...

(plucking)
G      Am        G        Am           G
Oh my soul, my soul, I'm bound for to rest

(plucking)
  Am                  G    Am
In the arms of the angel Gabriel

G          Am          G        Am
And I'll climb up the hill and look to the west

G       Am           G           Am
I'm crossing over Jordan to the land

C                           G
And I'll sit me down in my old arm chair

  Am      G            C
People, I will not be tired

             Am        G    Am               G
And though Satan may speak, I will take my knees

   Am            G      Am
As I warm myself up by the fire


(Chorus:)

           C              G
And I'll shout and I'll dance

          Am   G  Am            G
And I'll rise up early in the morning

Am       G      Am             G
I will rise and rub my sleepy eyes

Am                  G             Am
When Gabriel comes blowing on his horn


    Am          G              Am          G
E|--------------------------|--------------------------|
B|--------1-----------0-----|--------1-----------0-----|
G|-----------2-----------0--|-----------2-----------0--|
D|-----2-----------0--------|-----2-----------0--------|
A|--0-----------------------|--0-----------------------|
E|--------------3-----------|--------------3-----------|
                                                 Oh my soul...

G     Am        G        Am           G
Oh my soul, my soul, I'm bound for to rest

Am               G           Am
I'll rest just as sure as I am born

G          Am           G        Am
And I'll sing like a blackbird sittin' in its nest

Am                  G             Am
When Gabriel comes blowing on his horn

C                           G
And I'll throw my clothes upon the shore

   Am      G C
New garments I will have to wear

          Am        G    Am               G
And I'll have new shoes and never get the blues

      Am          G       Am
The angels will come and curl my hair


(Chorus:)

           C              G
And I'll shout and I'll dance

          Am   G  Am            G
And I'll rise up early in the morning

Am       G      Am             G
I will rise and rub my sleepy eyes

Am                  G             Am
When Gabriel comes blowing on his horn


    Am          G              Am          G
E|--------------------------|--------------------------|--|
B|--------1-----------0-----|--------1-----------0-----|--|
G|-----------2-----------0--|-----------2-----------0--|--|
D|-----2-----------0--------|-----2-----------0--------|--|
A|--0-----------------------|--0-----------------------|--|
E|--------------3-----------|--------------3-----------|--|
                                                        I (
Добавлено: 03.01.2016
Другие материалы по этой песне:
  • Аккорды и текст

Страница создана 03.01.2016
http://primanota.ru/among-the-oak-and-ash/angel-gabriel-chords.htm
Привет, Гость.
Предлагаем пройти революционный курс по гитаре.
Подарок от PrimaNota.Ru, забирай!