PrimaNota.ru - самый крупный в мире бесплатный архив песенных текстов, аккордов, табулатур и нот


Amon Tobin - People Like Frank - бас-таба, видео

Регистрация Запомнить меня
Войти через:  Facebook Google Twitter Vk Yandex Mail.ru

Amon Tobin - People Like Frank - бас-таба, видео

Печатать
Просмотров: 191
Уроки эстрадного вокала в Санкт-Петербурге
Авторы музыки: Amon Tobin

Amon Tobin - People Like Frank (Main Bass Riff)
http://www.amontobin.com/

Fretless Bass
Triplet 16th

      S S  E  E  S S  E  S S  E  E     S S  E  E  S S  E  S S  S S  E   3x
G||------------------------------6--|-----------------------------------||
D||*--4----------4-------5-3h-4-----|--4----------4-------5-3h-4-------*||
A||*---------------2h-3-------------|---------------2h-3---------------*||
E||-----0--2--4---------------------|----0--2--4-----------------0--2---||

  S S  E  E  S S  E  S S  E  E      W                  
-----------------------------6S--|--7----------------||
--4----------4-------5-3h-4------|-------------------||
---------------2h-3--------------|-------------------||
----0--2--4----------------------|-------------------||


W - whole
E - 8th
S - 16th

h - hammer on
S - shift slide


Tabbed by Ryan Spencer
lordydubsquire@hotmail.com
Добавлено: 05.07.2012
Другие материалы по этой песне:
  • Аккорды и текст

Страница создана 05.07.2012
http://primanota.ru/amon-tobin/people-like-frank-chords.htm
Привет, Гость.
Предлагаем пройти революционный курс по гитаре.
Подарок от PrimaNota.Ru, забирай!