PrimaNota.ru - самый крупный в мире бесплатный архив песенных текстов, аккордов, табулатур и нот


Amon Tobin - El Cargo - таба, видео

Регистрация Запомнить меня
Войти через:  Facebook Google Twitter Vk Yandex Mail.ru

Amon Tobin - El Cargo - таба, видео

Печатать
Просмотров: 139
Авторы музыки: Amon Tobin

This is the guitar and the bass combined into one guitar tab, and because of this, the E
string needs to be tuned down to a C (but this is optional! You don't have to play the
bass parts if you don't want to!). I just though that using one instrument to play the 
whole thing would useful if you want to sneak around your house and holding your guitar
like an SC-20K and pretending to shoot sticky cameras at your pets.

This is the main riff that is heard throughout many parts of the song. Every time a
guitar is heard it is playing this riff as a whole or parts of this riff separately.


Each note is palm muted! Every note.
E |----------------------------|----------------------------|
B |----------------------------|----------------------------|
G |--8--7--5-----5-------------|----------------------------|
D |-----------8----------------|--------------8--7--5--0----|
A |-----------------3--5--6----|--8--6--5--3----------------|
C |----------------------------|----------------------------|


|----------------------------|----------------------------||
|----------------------------|----------------------------||
|----------------------------|----------------------------||
|--8--7--5--3--5-------------|--------------1--0----------||
|----------------------------|--------------------3-------||
|-----------------0--2--3----|--5--3--2--0----------------||
Добавлено: 02.07.2013
Другие материалы по этой песне:
  • Аккорды и текст

Страница создана 02.07.2013
http://primanota.ru/amon-tobin/el-cargo-chords.htm
Привет, Гость.
Предлагаем пройти революционный курс по гитаре.
Подарок от PrimaNota.Ru, забирай!